Oops, an error
Loading. Please wait.

Sin Tí Tab

version 1
version 1

Whole song

by MDO
17 views 1 this week
no commentswrite comment
1 2 3 4 5
3 more votes to show rating
add to favorites
launch autoscroll
font size
0
reset
how to read this tab
guitar tuner
×
Best way to learn
"Sin Tí"
Autoscroll
slow
fast
+/-
esc
set tempo
stop
ESTA ES MI PRIMERA TRANSCRIPCIÓN ESPERO QUE LES GUSTE Y SE LA DEDICO 
A MI NOVIA MAYRA Q.  , AUNQUE EL DESTINO NO QUIZO QUE ESTEMOS JUNTOS 
SIEMPRE LA SEGUIRÉ AMANDO POR QUE LA LLEVO CLAVADA EN MI SER 


INTRO
    [ch]G M            [ch]D [/ch]                 MI[/ch] m
1/-------------------10--10--12--10---------------------------------
2/----7--9--10--8---------------------12--8--------------------
3/-------------------------------------------------------
                              
                    [ch]B[/ch] m                 [ch]C[/ch] M
1/-------------------10--10--12--10---------------------------------
2/----7--9--10--8---------------------12--8--------------------
3/--------------------------------------------------------

                   SOLM / LA m                                                 
1/--------------------------------------10--------------------
2/----9--10--9--11--9----7--9--10--8-------------------------------
3/-------------------------------------------------------- 

      [ch]D[/ch] M
1/---------------------------------------
2/----0--5--8--7--5--3--1---------------
3/-------------------------------------------------------- 

[ch]G       [ch]D [/ch]           MIm[/ch]
En mi alma hay , un lugar amor 
            [ch]Bm[/ch]           [ch]C [/ch]          
Cálido y sensual como el mar azul
            [ch]G            LAm[/ch]
Esperándo estoy , a que vengas ´tu 
        [ch]D [/ch]
Para mostrártelo...
SELM       [ch]D              MIm[/ch]
En mi habitación , cuado tú no estas
         [ch]Bm[/ch]            [ch]C [/ch]
El cielo se vá , lenta,ente y yo
             [ch]G             LAm[/ch]
Tengo que luchar , con la adversidad
       [ch]D [/ch]
Para sobreviviiiiiiir...

CORO 1
[ch]Em           SIm[/ch]
Dime que hice maaaal , 
    [ch]C           [ch]G [/ch]   RE [/ch]
Para merecer tu desprecio cariño
[ch]Em        SIm[/ch]
Tanta soledaaaad , 
[ch]C                   SOL [/ch]
Me tiene al borde de un profundo abismo
[ch]Am [ch]D [/ch]     MIm[/ch]
Me quiero morir...


SOLM/REM/MIm/SIm
Sin ti amooooor 
            [ch]C             SOL [/ch]
Todo es un desastre , me siento vacío
                [ch]Am[/ch]               [ch]D [/ch]
La vida no es vida ya nada es lo mismo
SOLM/REM/MIm/SIm
Sin tiiiiiii......
         [ch]C        SOL [/ch]
Salir a la calle no tiene sentido
            [ch]Am[/ch]                 [ch]D [/ch]
Hay tantos recuerdos que le dan muy duro a mi corazón

 
    [ch]G M            [ch]D [/ch]                 MI[/ch] m
1/-------------------10--10--12--10---------------------------------
2/----7--9--10--8---------------------12--8--------------------
3/-------------------------------------------------------
                              
                    [ch]B[/ch] m                 [ch]C[/ch] M
1/-------------------10--10--12--10---------------------------------
2/----7--9--10--8---------------------12--8--------------------
3/--------------------------------------------------------

                   SOLM / LA m                                                 
1/--------------------------------------10--------------------
2/----9--10--9--11--9----7--9--10--8-------------------------------
3/-------------------------------------------------------- 

      [ch]D[/ch] M
1/---------------------------------------
2/----0--5--8--7--5--3--1---------------
3/-------------------------------------------------------- 

[ch]G      [ch]D [/ch]             MIm[/ch]
En el corazón , yo conservo aún
           [ch]Bm[/ch]           [ch]C [/ch]
El poema aquel , que me diste tú
          [ch]G        LAm[/ch]
Tu primera vez , esa timidez
            [ch]D       MIm[/ch]
Mientras te amaba y yoooooo

CORO

INTERMEDIO : [ch]G M-[ch]D -[ch]Em-[ch]Bm-[ch]C [/ch]-SOL [/ch]-LAm[/ch]-RE [/ch]-LA [/ch]

LAM/MIM/FA#m/DO#m
amooooor 
             [ch]D              LA [/ch]
Todo es un desastre , me siento vacío
              [ch]Bm[/ch]            [ch]E [/ch]         
La vida no es vida ya nada es lo mismo

LAM/MIM/FA#m/DO#m
Sin Ti amoooor.....
         [ch]D           LA [/ch]
Salir a la calle no tiene sentido
             [ch]Bm[/ch]               [ch]E [/ch]
Hay tantos recuerdos que le dan muy duro a mi corazón

Hay tantos recuerdos que le dan muy duro a mi corazón....
Suggest correction
Give kudos to tab author, rate the tab!
1 2 3 4 5
comments
print report bad tab
guest
You may want to rate the tab now too:
select rating
Wanna post a correction for this tab? Suggest correction