Oops, an error
Loading. Please wait.

Sin Tí Tab

version 2
version 2

Whole song

13 views 1 this week
no commentswrite comment
1 2 3 4 5
3 more votes to show rating
add to favorites
launch autoscroll
font size
0
reset
how to read this tab
guitar tuner
×
Best way to learn
"Sin Tí"
Autoscroll
slow
fast
+/-
esc
set tempo
stop
Bueno creo que este es el intro original de esta canción

e-----------10.-10-12-10------
B--8-8-10-8--------------12-8-
G-----------------------------

e-----------10.-10-12-10------
B--8-8-10-8--------------12-8-
G-----------------------------

e-----------------------------------------
B-----8-10-8------8-10-8----8-10-12-13-10-
G-9-9---------9-9---------9---------------
Suggest correction
Give kudos to tab author, rate the tab!
1 2 3 4 5
comments
print report bad tab
guest
You may want to rate the tab now too:
select rating
Wanna post a correction for this tab? Suggest correction