Oops, an error
Loading. Please wait.

Balcón De Abril Tab

25 views 1 this week
no commentswrite comment
1 2 3 4 5
3 more votes to show rating
add to favorites
launch autoscroll
font size
0
reset
how to read this tab
guitar tuner
×
Best way to learn
"Balcón De Abril"
Autoscroll
slow
fast
+/-
esc
set tempo
stop
Intro

   [ch]A#/MI[/ch]           [ch]D/MI[/ch]
e:--0---0---0---0---0---0---0---0------||
B:--3---3---3---3---3---3---3---3------||
G:--3---3---3---3---2---2---2---2------||
D:--x---x---x---x-----0---0---0---0----||
A:----1---1---1---1--------------------||
E:-------------------------------------||


[ch]A#/MI[/ch]                      [ch]Dm/MI[/ch]             x2
aaaaaaaaaaaaaaaaaaaaaaaaaaaaaaaaaahh


I)

  [ch]A#7[/ch]           [ch]Dm[/ch]
  En verdad no sé.
  [ch]A#7         [ch]Dm[/ch]   D[/ch]: 5-4-3-2-
  Me puedo reír.
 [ch]A#[/ch]
  Es tan cómodo el sillón,
[ch]Am[/ch]
  es tan bueno estar así,
 [ch]G[/ch]
  no sé...

II)

[ch]Am[/ch]              [ch]Dm[/ch]
  Son las once y yo
[ch]Am              [ch]Dm[/ch]   D[/ch]: 5-4-3-2
  vuelvo del jardín
 [ch]A#[/ch]
  y en la luz del corredor
[ch]Am[/ch]
  cae un breve querubín
 [ch]G[/ch]
  marfil.

III)

[ch]Am[/ch]            [ch]D7[/ch]
  Me quedé aquí
[ch]Am[/ch]                [ch]D7[/ch]
  cuando el vino habló
[ch]C                SIm[/ch]
  de la copa en que enviudó,
[ch]C             SIm[/ch]
  del color de abril,
  [ch]A[/ch]
  de ti.


Puente:

entrada: Lam


[ch]Dm -[ch]FFA- REm - FA - [ch]Gm[/ch] - Fa(2) - LA#[/ch] - LA[/ch]

De esta forma

   [ch]D[ch]F   FA   [ch]Gm[/ch]  Fa(2) LA#[/ch]  LA[/ch]
e:--0-----5----3-----1-----0----0-------
B:--6-----6----3-----1-----6----5-------
G:--7-----5----3-----2-----7----6-------
D:--7-----7----5-----3-----8----7-------
A:--------------------------------------
E:--------------------------------------

Salida: (Esto originalmente va a 2
guitarras pero igual se puede tocar con una)

e:-----1-0---3----5-3--6-5--5-3---------3-1---0--------5-3--1---||
B:-------------6----------------6-5---------------------------2-||
G:---2------------------------------3-3---------2--3-3----------||
D:-0------------------------------------------------------------|| x2
A:---------4------3------2----------1-------0--------------0----||
E:-------------------------------------------------3------------||

[ch]A#[/ch]                                [ch]Dm[/ch]
aaaaaaaaaaaaaaaaaaaaaaaaaaaaaaaaaaaaaaaaaaahh   x2


IV)

  [ch]A#7[/ch]         [ch]Dm[/ch]
  En verdad va bien
  [ch]A#7          [ch]Dm[/ch]      D[/ch]: 5-4-3-2
  esta noche en mí,
 [ch]A#[/ch]
  el sabor del licor gentil,
 [ch]Am[/ch]
  besar tu perfil,
 [ch]G[/ch]
  no sé...


Repeticion III)

[ch]Am[/ch]            [ch]D7[/ch]
  Me quedé aquí
[ch]Am[/ch]                [ch]Dm7[/ch]
  cuando el vino habló
[ch]C                SIm[/ch]
  de la copa en que enviudó,
[ch]C             SIm[/ch]
  del color de abril,
  [ch]A[/ch]
  de ti.


V)

[ch]Bm[/ch]            [ch]E[/ch]
  Me quedé aquí
[ch]Bm[/ch]                [ch]E[/ch]
  cuando el vino habló


[ch]Bm[/ch] - [ch]E[/ch] x 4

[ch]Bm[/ch]       [ch]E[/ch]       [ch]D[/ch]       [ch]C#m[/ch]
aaaaaaaaaaaaaaaaaaaaaaaaaaaaaaaaahhh


Fin
[ch]Bm[/ch] - [ch]E[/ch]...


Aguante Mecanica Popular
Que vuelvan junto con Mario Villalobos!!!
Saludos.
Suggest correction
Give kudos to tab author, rate the tab!
1 2 3 4 5
comments
print report bad tab
guest
You may want to rate the tab now too:
select rating
Wanna post a correction for this tab? Suggest correction