Oops, an error
Loading. Please wait.

Caen Lunas Tab

12 views 1 this week
no commentswrite comment
1 2 3 4 5
3 more votes to show rating
add to favorites
launch autoscroll
font size
0
reset
how to read this tab
guitar tuner
Autoscroll
slow
fast
+/-
esc
set tempo
stop
Help us to improve Ultimate-Guitar.com Take our survey!
×
Caen Lunas - Manuel García


Riff 1

   Amadd9
e:-------------------------------0-----------|
B:-------------0--------------------0--------|
G:--------5-----------5----------------5-----|
D:---7---------------------7-----------------|
A:-------------------------------------------|
E:-------------------------------------------|

      E/G
e:------------------------0-----------
B:-----------0----------------0-------
G:--------4------4---------------4----
D:----5------------5------------------
A:------------------------------------
E:------------------------------------


Riff 1                           Dm
Desde el frío estatuto del silencio

Riff 1                       Dm
se desprende una hoja luminosa

C
y golpea con sus venas numerosas

   G
ataúdes


Dm                      C            G
desde las sombras disparadas por pestañas

Dm                      C            G
desde las sombras disparadas por pestañas.


Riff 1
Y a la tierra endulzarán los hueasos

Dm                     C
como al tiempo la hojarasca;

Riff 1
un caballo recortado de la noche

Dm                  C
sus costillas incendiadas.


Dm                 C
Caen lunas en la bruma,

     G
una a una

Dm                 C
caen lunas en la bruma,

     G
una a una,

Dm
desde las sombras

      C
disparadas

        G
por pestañas,

Dm
caen lunas

       C
en la bruma

     G
una a una.


 Dm - C - G  (Hasta [ch]A[/ch] muerte)


El riff no es exactamente así, pero está a un 90%.

¡Disfruten!
Suggest correction
Give kudos to tab author, rate the tab!
1 2 3 4 5
comments
print report bad tab
guest
You may want to rate the tab now too:
select rating
Wanna post a correction for this tab? Suggest correction