Oops, an error
Loading. Please wait.

Fiebre Impar Del Horizonte Tab

14 views 1 this week
no commentswrite comment
1 2 3 4 5
3 more votes to show rating
add to favorites
×
Save as Personal and add changes to this tab that will be seen only by you. Learn more ›
×
You can save this tab as Personal to edit and correct it or add notes. All changes will be seen only by you. Learn more »
save as personal
new!
launch autoscroll
font size
0
reset
how to read this tab
guitar tuner
Autoscroll
slow
fast
+/-
esc
set tempo
stop
[Intro]

parte 1  mim [bajando en semitonos]---> mim mim/re#- mim/re- mim/do#
parte 2  [ch]Cm7 SIm[/ch]

I
mim [bajando en semitonos]---> mim mim/re#- mim/re- mim/do#
Fiebre impar del horizonte
voy a desatar mi suerte
[ch]C7                           SIm[/ch]
llevo el pulso de un delirio azul

II
mim [bajando en semitonos]---> mim mim/re#- mim/re- mim/do#
Sé la historia de aquel hombre
que amarré su proa a un sueño
[ch]C7                         SIm[/ch]
y ese sueño lo clavé en la cruz
[ch]A                  SIm[/ch]
en la flor de la sangre,
[ch]A[/ch]
de su amor

I
mim [bajando en semitonos]---> mim mim/re#- mim/re- mim/do#
Y al tono de la locura
está afinado el cuerno
[ch]C7                             SIm[/ch]
con que he de dar la orden de partir

II
mim [bajando en semitonos]---> mim mim/re#- mim/re- mim/do#
Estoy solo contra el cielo
sobre el mar de rojo entero
[ch]C7                            SIm[/ch]
y la voz del fuego es la de un Dios
[ch]A                     SIm[/ch]
que aprendió entre los hombres
[ch]A[/ch]
su canción

[Intermedio]

[ch]Em[/ch] -[ch]C7[/ch] 8 veces

I
mim [bajando en semitonos]---> mim mim/re#- mim/re- mim/do#
Astrolabio de madera
camino de las estrellas
[ch]C7                         SIm[/ch]
y en tus ojos brilla el azimut

II
El vigía anuncia tierra
y hay que descolgar las velas
[ch]C7                         SIm[/ch]
con fecha de enero a plena luz
[ch]A                       SIm[/ch]
de la sal, se abre el viento
     [ch]A[/ch]
como el mar.

[Intermedio 2]

[ch]Em[/ch]-[ch]C7[/ch] 12 veces

[Salida intermedio 2]

mim [bajando en semitonos]---> mim mim/re#- mim/re- mim/do#
[ch]Cm7 SIm[/ch]

I
mim [bajando en semitonos]---> mim mim/re#- mim/re- mim/do#
Fiebre impar del horizonte
voy a desatar mi suerte
[ch]C7                           SIm[/ch]...
llevo el pulso de un delirio azul

[FInal]
azul.....
[ch]Bm[/ch]

[ch]E[/ch] [ch]C7[/ch] 3 veces
[ch]E[/ch]

[INTRO]

parte 1

  [ch]Em             MIm/RE#        MIm/RE          MIm/DO#[/ch]

e --0--         e --0--        e --0--          e --0--
b --0--         b --0--        b --0--          b --0--
g --0--         g --0--        g --0--          g --0--
d --2--         d --1--        d --0--          d --x--
a --2--         a --2--        a --2--          a --4--
E --0--         E --0--        E --0--          E --0--


PArte 2

[ch]C7          SIm[/ch]

e --0--     e --2--
b --0--     b --3--
g --0--     g --4--
d --2--     d --4--
a --3--     a --2--
E --x--     E --x--


[Intermedio]

     [ch]Em[/ch]        [ch]C7[/ch]
e ----------------------------/             ---------------------------
b ----------5-----------------/             ---------------------------
g ----4----------3^2-3^2-3-4--/  3 veces    ----4----------------------
d -------5--------------------/             --------5-2-5--------------
a ----------------------------/             ---------------------------
E ----------------------------/             ---------------------------


[intermedio 2]
comienza igual q el anterior solo varia su salida

     [ch]E         MIm/RE#   MIm/RE       MIm/DO#[/ch]
e --------5-7----------------------5-7-----------
b ------8------------------------8---------------
g -----------------------------------------------
d -----------------------------------------------
a -----------------------------------------------
E -----------------------------------------------


[ch]C7                         SIm[/ch]
-------------------------------/
------7-8-----------8-7--------/
----9-------------------9-7----/
-------------------------------/
-------------------------------/
-------------------------------/


[FInal]

     azul.....
     [ch]Bm[/ch]
e ---11-----11-10-----10-8-----8-7-------
b ------8---------8--------8-------8---7-
g --------8---------8--------8-------8---  <------- Forma de arpegio
d ---------------------------------------
a ---------------------------------------
E ---------------------------------------

    [ch]Em     [ch]C7            MIm     DO7             MIm[/ch]   DO7[/ch]

e ---7----------6^5-6^5-6--7------------6^5-6^5-6--7----------6^5-6^5------
b ---8----------------------------------------------------------------8----
g ---9-------------------------------------------------------------------9-
d -------------------------------------------------------------------------
a -------------------------------------------------------------------------
E -------------------------------------------------------------------------


Espero la puedan tocar bien ya que es un gran tema...
no es bueno matar la musica asi que a sacarlo bien xD
Saludos desde Maipu, Chile

Felipe Cavieres
ClausLucas <--------------- ;)
Suggest correction
Give kudos to tab author, rate the tab!
1 2 3 4 5
comments
print report bad tab
guest
Wanna post a correction for this tab? Suggest correction