Oops, an error
Loading. Please wait.

Gato Bass

24 views 1 this week
no commentswrite comment
1 2 3 4 5
3 more votes to show rating
add to favorites
launch autoscroll
font size
0
reset
guitar tuner
×
Best way to learn
"Gato"
Autoscroll
slow
fast
+/-
esc
set tempo
stop
Primera Parte se repite dos veces
-------------44-----------------------------------------------------
---4----4--4----4-----4-----4--------2-3~4---4-----4--------2---2---
----------2-------2-----------2-4~5-2------2---2-0---0--2~4---------
-2---22-------------2---2-2---------------------------0-------0---0-

Continua desde la primera parte.        55 seg. segunda parte (2 veces)
----------------------------       -----------------------------------
---4-----4---------2---2----       -----------7-5~7------------7-5~7--
-2---2-0---0---2~4----------       -----7~6-5------------7~6-5--------
-------------0-------0---0--       -5-5--------------5-5--------------

Ahora se repite la primera y segunda parte


Y luego viene ésto (o algo similiar, le pueden poner de su cosecha):

--------------------------------------------------------
--------------------------------------------------------
--------3~4-5-----------3-4-5---------------------------------
-5--2-3-------1-0--5-2-3-------1-0--5-55-55-55--2-22-22-22-2--

                                          Esta parte x4
---------------------------------     -----------------------
---------------------------------     ----------7-5~7--------
--------------5-55-55-55-5-------     -----7~6-5-------------
-3-33-33-33-3--------------11-0--     -5-5-------------------


Ahora se repite todo nuevamente. Un poquito de oído y todo saldrá bien...
Cualquier reclamo o mejora, me lo hacen saber por favor.
Este tema lo tocamos con mis compañeros en una tocata de
la falcutad.. salió la raja! Enviado por FelipeTheFox
Suggest correction
Give kudos to tab author, rate the tab!
1 2 3 4 5
comments
print report bad tab
guest
You may want to rate the tab now too:
select rating
Wanna post a correction for this tab? Suggest correction