Oops, an error
Loading. Please wait.

Hablar De Tí Chords

16 views 3 this week
no commentswrite comment
1 2 3 4 5
3 more votes to show rating
add to favorites
launch autoscroll
font size
0
reset
transpose
0
reset
simplify chords
display chords
guitar tuner
×
Best way to learn
"Hablar De Tí"
Autoscroll
slow
fast
+/-
esc
set tempo
stop
ARPEGIOS

A

e:---9----------------9--------------------|
B:-------------0----------------0----------|
G:-----------------------------------------|
D:--------7---------------7--------7-------|
A:---0----------------0--------------------|
E:-----------------------------------------|


Em9
e:---2------------------------2------------|
B:-----------------0-------------------0---|
G:-------------0------0-------------0----0-|
D:-------2---------------2------2----------|
A:-----------------------------------------|
E:---0------------------------0------------|

A*

e:-------------------------------|
B:-------------------------------|
G:--------2--0------2--0---------|
D:-------------------------------|
A:---0----------0----------------|
E:-------------------------------|

D
e:--------------2-------5---------2------0---------2---2|
B:-----------3----3------------3----3------------3--3---|
G:--------2--------2---------2-------2---------2-----2--|
D:---0--------------------0------------------0----------|
A:------------------------------------------------------|
E:------------------------------------------------------|


D*
e:--------------2----------------2------0---------2---|
B:-----------3----3------------3----3---------3-----3-|
G:--------2-----------------2---------------2---------|
D:---0-----------------4---------------2--------------|
A:----------------------------------------------------|
E:----------------------------------------------------|


*RIFF (Acordes durante el RIFF Sol y La)
lo que esta enre /* */ se repite 2 veces

e:-----------------------------------------------------------------------|
B:-----------------------------------------------------------------------|
G:-----------------------------------------------------------------------|
D:---------------0------------------0-----------------------------------5|
A:-------2---4--------------2---4------0-----/*0-3-4-0-3-4-0-3-4-0*/-----|
E:3---3--------------3---3------------------------------------------3-3--|


Intro
A

Primer Verso TODO con arpegio:


A                                                   Em9
Subiendo el cerro el frío se adueño de mi actitud y mi gesto
A*                                                         D
cruzando mis brazos contra el pecho en la noche como un niño enfermo
D*                                        Em
despeinaba el viento tu salud y nos ladraba un perro
           A
y todos los barcos con su luz alumbraban


Coro:

G5a(SOL)     A5a(LA)         B5a(SIm)
tu pelo Yo sólo quiero que recuerdes eso
           G5a(SOL)              A5a(LA)            Riff*
que fui un pasajero alla entre tus sueños que fui un pasajero.


Segundo Verso Rasgeado:

A                                              Em(a veces lo haces 9a)
Porque hablar de ti es desterrarse a los paisajes que me acuerdo,
A                                          D(a veces lo haces 4a,3aM,2aM)
como intentar hallar la llave de tu voz en los dominios de un secreto,
D                                          Em(a veces lo haces 9a)
me esta dando pena esta canción que sólo era un recuerdo
   A
de todas maneras me gustó


Coro:
            G5a(SOL)     A5a(LA)          B5a(SIm)
Rondar el cementerio Te hablo de eso te hablo de aquello
           G5a(SOL)              A5a(LA)       RIFF*
te hablo por eso que fui un pasajero alla entre tus sueños.


Saludo para toda la gente que escucha este buen grupo
Suggest correction
Give kudos to tab author, rate the tab!
1 2 3 4 5
comments
print report bad tab
guest
You may want to rate the tab now too:
select rating
Wanna post a correction for this tab? Suggest correction