Oops, an error
Loading. Please wait.

Se Me Olvidó Tab

44 views 1 this week
no commentswrite comment
1 2 3 4 5
3 more votes to show rating
add to favorites
launch autoscroll
font size
0
reset
how to read this tab
guitar tuner
×
Best way to learn
"Se Me Olvidó"
Autoscroll
slow
fast
+/-
esc
set tempo
stop
Esta la parte de la flauta para tocar en la guitarra,
los acordes varian un poco en esta parte y cambian
cuando comienza a cantar.

    C               G         Am         Em
e--12--8-8-10-12-10------7-8-------7-8-7--12-|
B-------------------8--10----10-10------8----|
G--------------------------------------------|
                                                 X2
  F          C    F               G
e-5------5--------5-7-8-7-5-5-7-8-10----------|
B--6-6-8---8----------------------------------|
G------------5--------------------------------|
 (LO REPITEN DOS VECES.[COMO YA SABEN])

C         G         Am  Em            F
Tanto luchar por vivir en nuestro hogar
                 C  G
junto a un buen fuego,
C                 G          Am
y hay quien se empeña en quemar
Em       F              C  G
toda la paz de nuestro techo.


    C               G       C              G
e--12--8-8-10-12-10---8-10-12-8-8-10-12-10---|
B-------------------8----------------------8-|

C         G         Am  Em         F
Juntos debemos cambiar la mezquindad
             C  G
de nuestro pueblo,
 C        G             Am
lágrimas que hay que secar
 Em      F                C G
para lograr hoy nuestro sueño.

    C               G       C              G-A-B..
e--12--8-8-10-12-10---8-10-12-8-8-10-12-10---|
B-------------------8----------------------8-|

C          F                 C
Se me olvidó que hay que vivir
           Am                   G
se me olvidó  que hay que escuchar
              F C
las olas del ma-a-r,

D-------3-2-------|
A-3--3-5----5-3-3-|
E--3--------------|

(IGUAL QUE LA PARTE ANTERIOR)

Se me olvidó que hay que reír
se me olvidó que no hay vida
si no hay emoción.

    C               G         Am         Em
e--12--8-8-10-12-10------7-8-------7-8-7--12-|
B-------------------8--10----10-10------8----|
G--------------------------------------------|

  F          C    F               G
e-5------5--------5-7-8-7-5-5-7-8-10----------|
B--6-6-8---8----------------------------------|
G------------5--------------------------------|

Hoy no te debes dormir sin arreglar
este desastre,
esto te invita a vivir, da cuerda al reloj
que es tu coraje.

    C               G       C              G-A-B..
e--12--8-8-10-12-10---8-10-12-8-8-10-12-10---|
B-------------------8----------------------8-|

C          F                 C
Se me olvidó que hay que vivir
           Am                   G
se me olvidó  que hay que escuchar
              F C
las olas del ma-a-r,

D-------3-2-------|
A-3--3-5----5-3-3-|
E--3--------------|

(IGUAL QUE LA PARTE ANTERIOR)

Se me olvidó que hay que reír
se me olvidó que no hay vida
si no hay emoción.

D-------3-2-------|
A-3--3-5----5-3-3-|
E--3--------------|

Y esta es la parte del solo pero aún me fallan los acordes.
...........................................................

(Aquí sólo se tocan estos acordes)
    C                         Am
e--12--8-8-10-12-10------7-8-------7-8-7--12-|
B-------------------8--10----10-10------8----|
G--------------------------------------------|

  F               F                G
e-5------5--------5-7-8-7-5-5-7-8-10----------|
B--6-6-8---8----------------------------------|
G------------5--------------------------------|

(Ahora sí se tocan todos los acordes)
    C               G         Am         Em
e--12--8-8-10-12-10------7-8-------7-8-7--12-|
B-------------------8--10----10-10------8----|
G--------------------------------------------|

  F          C    F               G
e-5------5--------5-7-8-7-5-5-7-8-10----------|
B--6-6-8---8----------------------------------|
G------------5--------------------------------|


Con medio mundo al revés
sigues sin saber
por qué se matan
si hay sitio para vivir
todos en paz en nuestra casa.

    C               G       C              G
e--12--8-8-10-12-10---8-10-12-8-8-10-12-10---|
B-------------------8----------------------8-|

Tanto luchar por vivir
en nuestro hogar
junto a un buen fuego
y hay quien se empeña en quemar
toda la paz de nuestro techo.

Se Me Olvidó....

 Y así sigue la cancíon.
espero que este bien . cualquier duda allá arriba aparece mi correo.
Saludos desde México a todos los seres
que entren a revisar esta transcripción.
Suggest correction
Give kudos to tab author, rate the tab!
1 2 3 4 5
comments
print report bad tab
guest
You may want to rate the tab now too:
select rating
Wanna post a correction for this tab? Suggest correction