Oops, an error
Loading. Please wait.

Solo Y Sin Tí Tab

70 views 1 this week
no commentswrite comment
1 2 3 4 5
3 more votes to show rating
add to favorites
launch autoscroll
font size
0
reset
how to read this tab
guitar tuner
×
Best way to learn
"Solo Y Sin Tí"
Autoscroll
slow
fast
+/-
esc
set tempo
stop
 beuno pues aqui les va los solos de esta buena rola.

el primero va asi:
1-------------------------------------------------
2----------------------------------------------14-
3----9-11-13-11~-13-14-13-11h13p11p9-------/13----
4-/9---------------------------------13-11--------
5--------------------------------------------------
6--------------------------------------------------

1------------------------------9-12-12/14-12-11-----
2-12h14-12------------------10----------------------
3----------14-13-14-11~~-11---------------------11~-
4---------------------------------------------------
5---------------------------------------------------
6---------------------------------------------------

1-------9-12-11-9----11-9-------9--------------------
2----10-----------12------12-10---12-10-9-12-10-9----
3-11----------------------------------------------11-
4----------------------------------------------------
5----------------------------------------------------
6----------------------------------------------------

1----------I---14p12-----16p14-----16p14-----17p15---
2----------I--------12--------12--------14--------15-
3-9--------I-----------------------------------------
4---11-9~~~I-----------------------------------------
5----------I-----------------------------------------
6----------I-----------------------------------------

1-17P15------19-17-------------------
2------15/17-------21-19-------------
3------------------------16~~~-------
4------------------------------------
5------------------------------------
6------------------------------------

1-15s16-14----14~-------------------------------
2----------17-----17-16-14-16-17-17~~~~~--------
3-----------------------------------------------
4-----------------------------------------------
5-----------------------------------------------
6-----------------------------------------------

  y el segundo solo va asi:

1----------------------------------------------------
2-----------------------------------------------------
3-13~13-14-13--------13-14-16~~~-14-13-9-11-13-14-11~-
4-------------14--------------------------------------
5----------------14~----------------------------------
6-----------------------------------------------------

1-----------------------------------------------------
2-----------------------------------------------------
3-13-14-16-14-13-11-9h11p9--8h9p8--6hh8p6-4~~~--------
4-----------------------------------------------------
5-----------------------------------------------------
6-----------------------------------------------------

1---------------------------------------------------------
2---------------------------------------------------------
3---------------------------------------------------11----
4---------------9-10-12-10~----------------11-13-14----14~
5--------8-9-11-------------------10-11-13----------------
6-8-9-11--------------------11-13-------------------------

1-----------------------------------------------------
2----------------14-17-16-14--------------------------
3-------13-14-16-------------16-14-13-----------------
4-14-16-------------------------------16-14-16~~------
5-----------------------------------------------------
6-----------------------------------------------------

1-15s16-14--------------------------------------------
2----------17-17~~~~~~--------------------------------
3-----------------------------------------------------
4-----------------------------------------------------
5-----------------------------------------------------
6-----------------------------------------------------


esos son los solos espero que les
gusten y les sirvan.

s= estirar la nota indicada
~= se deja sonando la nota
h= ligado desendente
p= ligado desendene
/= se deslisa al traste indicado
Suggest correction
Give kudos to tab author, rate the tab!
1 2 3 4 5
comments
print report bad tab
guest
You may want to rate the tab now too:
select rating
Wanna post a correction for this tab? Suggest correction