Oops, an error
Loading. Please wait.

Solos Tú Y Yo Tab

146 views 1 this week
no commentswrite comment
1 2 3 4 5
3 more votes to show rating
add to favorites
launch autoscroll
font size
0
reset
how to read this tab
guitar tuner
×
Best way to learn
"Solos Tú Y Yo"
Autoscroll
slow
fast
+/-
esc
set tempo
stop
  Intro de guitarra eléctrica


          |---3---|                             |---3--|
      Q    E   E   E   E.    S  E   E      Q     E   E  E  E.    S E  E
E||------------------------------------|---------------------------------|
B||------------------------------------|---------------------------------|
G||--------9--10--12--12br-----12------|----------------9--9br-----9-----|
D||--10----------------------------12--|--10----10--12----------------9--|
A||------------------------------------|---------------------------------|
E||------------------------------------|---------------------------------|


       |---3--|       |---3--|            |---3--|          |---3---|
  Q    E  E   E  Q    E  E   E      Q     E   E  E  E.    S E   E   E
--------------------------------|--------------------------------------|
--------------------------------|--------------------------------------|
--------------------------------|----------------9--9br-----9----------|
--7----7--9--10-------7--9--10--|--------10--12----------------12--10--|
-----------------8--------------|--10----------------------------------|
--------------------------------|--------------------------------------|


        |---3---|
   Q    E   E   E   E.    S  E.    S
-------------------------------------|
----------------------------12br-----|
--------9--10--12--12br--------------|
--10---------------------------------|
-------------------------------------|
-------------------------------------|


         |---3--|          |---3---|           |---3--|
   Q     E   E  E  E.    S E   E   E      Q    E  E   E  Q    S S  S S
--------------------------------------|--------------------------------|
--10----------------------------------|--------------------------------|
----------------9--9br-----9----------|--------------------------------|
--------10--12----------------12--10--|--10----7--9--10-------x-x-10---|
--------------------------------------|------------------8-----------8-|
--------------------------------------|--------------------------------|


 E.   T T T  T  T  T  T  T  T  T  T  T  T  T  T  T  T  T  T  T  T  T  T  T
------------------------------------------------------10------------------|
---------------------------------------------10-12-13----13-12-10---------|
---------------------------------------10-12----------------------12-10---|
------------------------------10-12-14----------------------------------14|
-10---L-x-x-12-10----10-12-14---------------------------------------------|
------------------13------------------------------------------------------|


   W
---------------------||
---------------------||
---------------------||
--10~----------------||
---------------------||
---------------------||


Duration Legend
---------------
W - whole
H - half
Q - quarter
E - 8th
S - 16th
T - 32nd
X - 64th
. - note dotted
|-n-|  - n-tuplets


Tablature Legend
----------------
L - tied note
x - dead note
g - grace note
(n) - ghost note
> - accentuded note
NH - natural harmonic
AH - artificial harmonic
TH - tapped harmonic
SH - semi harmonic
PH - pitch harmonic
h - hammer on
p - pull off
b - bend
br - bendRelease
pb - preBend
pbr - preBendRelease
brb - bendReleaseBend
n/ - tremolo bar dip
n - tremolo bar dive
-/n - tremolo bar Release up
/n - tremolo bar inverted dip
/n - tremolo bar return
-n - tremolo bar Release down
S - shift slide
s - legato slide
/ -  slide into from below or out of upwards
 -  slide into from above or out of downwards
~ - vibrato
W - wide vibrato
tr - trill
TP - tremolo picking
T - tapping
S - slap
P - pop
< - fade in
^ - brush up
v - brush down
Suggest correction
Give kudos to tab author, rate the tab!
1 2 3 4 5
comments
print report bad tab
guest
You may want to rate the tab now too:
select rating
Wanna post a correction for this tab? Suggest correction