Oops, an error
Loading. Please wait.

Tu Jardín Con Enanitos Tab

version 1
version 1

Whole song

Interactive

by Melendi
730 views 3 this week
no commentswrite comment
1 2 3 4 5
1 last vote to show rating
add to favorites
launch autoscroll
font size
0
reset
how to read this tab
guitar tuner
×
Best way to learn
"Tu Jardín Con Enanitos"
Autoscroll
slow
fast
+/-
esc
set tempo
stop
Hola como los acordes están bastante bien les dejo la introducción,
cualquier duda me pueden consultar:

CONTACTO:

E-mail:   sebastian_1989@
DEFFacebook: 


e-----3-2-0---0-----0- -------------
B-----------3---3----- ----3---3----
G---2-------------0--- ------0---0--
D-----0--------------- -------------
A-------------3------- --3-----3----
E--------------------- -------------

-----3-2-0----------- ---------------
-----------3-0----0-- ------------3--
---2-----------0----- ----0---2-2----
-----------------2--- ------2-0------
-------------0------- ---------------
--------------------- --0------------


-----3-2-0---0-----0- -------------
-----------3---3----- ----3---3----
---2-------------0--- ------0---0--
-----0--------------- -------------
-------------3------- --3-----3----
--------------------- -------------


------------------------
----------1-0---3----3--
-------0------2---x--2--
--0-0-------------------
------------------------
------------------------
Suggest correction
Give kudos to tab author, rate the tab!
1 2 3 4 5
comments
print report bad tab
guest
You may want to rate the tab now too:
select rating
Wanna post a correction for this tab? Suggest correction