Oops, an error
Loading. Please wait.

El Viento Te Lo Dirá Tab

41 views 1 this week
no commentswrite comment
1 2 3 4 5
3 more votes to show rating
add to favorites
launch autoscroll
font size
0
reset
how to read this tab
guitar tuner
×
Best way to learn
"El Viento Te Lo Dirá"
Autoscroll
slow
fast
+/-
esc
set tempo
stop
Intro: C#

E||---------------------------------|---------------------9-9-|
B||--17b------17b-------14----14-17-|--14-----------------9-9-|
G||------------------------16-------|-------------------------|
D||---------------------------------|-------------------------|
A||---------------------------------|-------------------------|
E||---------------------------------|-------------------------|

--9------------------------------|----------------------||
--9-12-9-------------------------|----------------------||
---------11br--9-11----9---------|----------------------||
--------------------11-----------|------------2----3----||
---------------------------------|--4----2----0---------||
---------------------------------|-----------------4----||

F#m                                           C#7
En la prision de tu amor comi el mas rico pastel
Bm                                     F#m
Un dia lime los barrotes y sin mirar atrás escape
F#m                                          C#7
A nubes sin rumbo siempre llueve en abril
Bm                              F#m
Perdido empapado no pude seguir
Asus4                                    Bm
Re loco para aquí para alla y no te puedo encontrar
D                 C#7                          F#m
Ahora se que soy un hombre roto
Asus4                                    Bm
Re loco para aquí para alla, mil partes vuelvo a juntar
D                 C#7                          F#m    -   C#7
Ahora se no puedo estar tan solo

F#m
Yo mis sueños se los doy al viento
          C#7
Porque el viento te lo tira
        Bm
Estan lleno de sentimiento
       D               C#7  -  F#m  - C#7
Donde sea te encontraran
F#m
Yo mis sueños se los doy al viento
          C#7
Porque el viento te lo tira
        Bm
Estan lleno de sentimiento
       D               C#7  -  F#m  - C#7
Donde sea te encontraran


                      |------3------|
E||-----14-----14----14-----14-----14-----|
B||-----17b----17b---17b----17b----17b----|
G||---------------------------------------|
D||---------------------------------------|
A||---------------------------------------|
E||---------------------------------------|


--14---14---------------14----|-------------------------------|
--17b--17b-----------------17-|------------------14-17-----14-|
------------------------------|--16b~------------------16b----|
------------------------------|-------------------------------|
------------------------------|-------------------------------|
------------------------------|-------------------------------|


-------------------------------------------------------|
--17-----14-17-----14-17-----14-17-----14-17-----14-17-|
-----16b-------16b-------16b-------16b-------16b-------|
-------------------------------------------------------|
-------------------------------------------------------|
-------------------------------------------------------|

--------------------------------------------|
--17b----Lb--14-17----14--------------------|
-------------------16----14-16-14-----------|
----------------------------------16-14-----|
----------------------------------------16s-|
--------------------------------------------|


         |--3--|
----------------------------------------------------------|
----------------------------------------------------------|
---------------------------------------------14-16-16b-14-|
---------------------------14-16-14----14-16--------------|
--14-12-14-12----12-14s-16----------16--------------------|
--------------14------------------------------------------|


   |--3--|
-----------------------14----17b--------|
-----------------14-17----14------------|
--16-14----14-16------------------------|
--------16------------------------------|
----------------------------------------|
----------------------------------------|


--17b--------17b----14----14-17-|
-----------------------17-------|
--------------------------------|
--------------------------------|
--------------------------------|
--------------------------------|

   |--3--|
--14-17-14-----------------------14--|------------------19b-------|
----------------------17-14-17b------|----------------------------|
-------------------------------------|----------------------------|
-------------------------------------|----------------------------|
-------------------------------------|----------------------------|
-------------------------------------|--14s--2--------------------|


---------17-19-19~--17-19-19~--17-19-|
-------------------------------------|
-------------------------------------|
-------------------------------------|
-------------------------------------|
-------------------------------------|


--19~--17-19-19~--17-19-19~--17-19-19b---Lb--|
---------------------------------------------|
---------------------------------------------|
---------------------------------------------|
---------------------------------------------|
---------------------------------------------|


       |---3--|
--19b--Lb-17-------17b-----------|-----------||
-------------19------------------|-----------||
---------------------------------|-----------||
---------------------------------|-----------||
---------------------------------|-----------||
---------------------------------|-----------||


F#m
Donde vas? (donde vas?)
C#7
Donde vas?
Bm
No acerque, no te encontre, me quize morir
   D         C#7     F#m   C#7
El viento te lo dira
Donde vas? (donde vas?)
Donde vas?
No acerque, no te encontre, me quize morir
El viento te lo dira

F#m
Donde vas? (donde vas?)
C#7         Bm
Donde vas?
   D         C#7     F#m   Riff1
El viento te lo dira      |----------------------|
                          |----------------------|
                          |----------------------|
                          |------2-2-------------|
                          |--2-4-----3-2-0-2-0---|
                          |--------------------2-|

   D         C#7     F#m   Riff1
El viento te lo dira
   D         C#7     F#m   Riff1
El viento te lo dira

D - C#7 - F#m
Suggest correction
Give kudos to tab author, rate the tab!
1 2 3 4 5
comments
print report bad tab
guest
You may want to rate the tab now too:
select rating
Wanna post a correction for this tab? Suggest correction