Oops, an error
Loading. Please wait.

Adiós Bass Tab

11 views 1 this week
no commentswrite comment
1 2 3 4 5
3 more votes to show rating
add to favorites
launch autoscroll
font size
0
reset
guitar tuner
Autoscroll
slow
fast
+/-
esc
set tempo
stop
Help us to improve Ultimate-Guitar.com Take our survey!
×
Se empieza con 12 compases en silencio

G :| ----------------|---------------- ||| ----------------|
D :|*----------------|----------------*|||*4---2-----------|
A :|*4-----4-3-------|------------2---*|||*--------5---4---|
E :| ----------------|5---4---3------- ||| ----------------|
                    5x                                    4x
G :---------------- ||| ----------------|---------------- |||
D :----------------*|||*----------------|----------------*|||
A :----------------*|||*4-----4-3-------|------------2---*|||
E :3-3-5---0------- ||| ----------------|5---4---3------- |||

G :| ----------------|---------------- ||| ----------------|
D :|*4-------2-------|----------------*|||*4---2-----------|
A :|*----------------|5---------------*|||* -------5---4---|
E :| ----------------|--------3-3-5--- ||| ----------------|

G :---------------- ||| ----------------|---------------- |||
D :----------------*|||*----------------|----------------*|||
A :----------------*|||*4-----4-3-------|------------2---*|||
E :3-3-5---0------- ||| ----------------|5---4---3------- |||

G :| ----------------|---------------- ||
D :|*4---2-----------|----------------*||
A :|*--------5---4---|----------------*||
E :| ----------------|3-3-5---0------- ||
Suggest correction
Give kudos to tab author, rate the tab!
1 2 3 4 5
comments
print report bad tab
guest
You may want to rate the tab now too:
select rating
Wanna post a correction for this tab? Suggest correction