Oops, an error
Loading. Please wait.

Canta Al Señor Tab

29 views 3 this week
no commentswrite comment
1 2 3 4 5
3 more votes to show rating
add to favorites
launch autoscroll
font size
0
reset
how to read this tab
guitar tuner
×
Best way to learn
"Canta Al Señor"
Autoscroll
slow
fast
+/-
esc
set tempo
stop
ESTE ES EL TAB DE LA INTRO:

e|-----------------|-----------------|
B|-----------------|-----------------|
G|-------------2/3-|-------------3/2-|
D|-3-3-3-3-3-3-----|-----------------|
A|-----------------|-3-3-3-3-3-3-----|
E|-----------------|-----------------|
  |-Palm Mute-|     |-Palm Mute-|

e|-----------------|-----------------|
B|-----------------|-----------------|
G|-------------2/3-|---------3-2-0-2-|
D|-0-0-0-0-0-0-----|-----------------|
A|-----------------|-3-3-3-3---------|
E|-----------------|-----------------|
  |-Palm Mute-|     |PalmMute|

e|-----------------|-----------------|------
B|-----------------|-----------------|------
G|-------------2/3-|-----------------|-3~~~~
D|-3-3-3-3-3-3-----|-----------------|-3~~~~
A|-----------------|-3-3-3-3-3-3-3-3-|-1~~~~
E|-----------------|-----------------|------
  |-Palm Mute-|     |-Palm Mute-|

LUEGO LA OTRA INTRO:

e|-1-0-1-3-1---|-1-0-1-5-1---|-1-0-1-3-1-0-0--|--1-3-5-|
B|-------------|-------------|----------------|--------|
G|-------------|-------------|----------------|--------|
D|-------------|-------------|----------------|--------|
A|-------------|-------------|----------------|--------|
E|-------------|-------------|----------------|--------|

LO DEMAS VA BASICAMENTE EN: F - C - Dm - A#
YALGUNOS OTROS PUNTEOS POR AHI...
BLESSINGS !!!
Suggest correction
Give kudos to tab author, rate the tab!
1 2 3 4 5
comments
print report bad tab
guest
You may want to rate the tab now too:
select rating
Wanna post a correction for this tab? Suggest correction