Oops, an error
Loading. Please wait.

Como Tú Chords

version 2
version 2

Whole song

23 views 1 this week
no commentswrite comment
1 2 3 4 5
3 more votes to show rating
add to favorites
launch autoscroll
font size
0
reset
transpose
0
reset
display chords
guitar tuner
×
Best way to learn
"Como Tú"
Autoscroll
slow
fast
+/-
esc
set tempo
stop
Intro: C# G# F# A#

Verso 1:
 C#       G#      A#        F#
Vivo atado a una realidad incierta;
 C#       G#      A#        F#
la soledad me abraza sin poder salir.
 C#       G#      A#        F#
Pero ha llegado el dia y me tengo que escapar,
      C#    G#     F#
hacia ti, Jesús, hacia ti...

Precoro:
 A#                   F#     C#-G#
Quiero hoy volverme a ti...
 A#               F#             (se desliza A plumilla por
tu perfecto amor, no me fallará.   la cuerda A)

Coro:
   C#       G#      A#        F#
Como tú, no hay nadie en este mundo como tú
   C#       G#      A#        F#
Como tú, no hay nadie que me ame así como tú
   C#       G#      A#        F#
Como tú, tan grande y tan perfecto no lo hay...

(Se tocan los acordes de la Intro: C# G# F# A#)

Verso 2:
   C#       G#      A#        F#
Ya no puedo, y tengo que escapar de aqui,
   C#       G#      A#        F#
que no es como antes porque tú estás en mi.

Solo(min. 1:08):

D|------3-4-3---3--4s6-4-3-4--3-----|
A|-2s4--------4-----------------4-1-|
E|----------------------------------|

D|------3-4-3------------------3-----|
A|-2s4--------4--1---1h4--1h4----1-4-|
E|-----------------------------------|

Después del solo, min. 1:18
      C#        G#        A#       F#
e|-----------|------|-----------|------|
B|-----------|------|-----------|------|
G|-6-6-6-6-6-|------|-----------|------|
D|-6-6-6-6-6-|-6--6-|-8-8-8-8-8-|-4--4-|
A|-4-4-4-4-4-|-6--4-|-8-8-8-8-8-|-4--4-|
E|-----------|-4--4-|-6-6-6-6-6-|-2--2-|


Alguna duda con los arreglos y acordes de este grupo o demás:
saviour_king@

DLB
Suggest correction
Give kudos to tab author, rate the tab!
1 2 3 4 5
comments
print report bad tab
guest
You may want to rate the tab now too:
select rating
Wanna post a correction for this tab? Suggest correction