Oops, an error
Loading. Please wait.

Pasaba Por Aquí Tab

29 views 3 this week
no commentswrite comment
1 2 3 4 5
3 more votes to show rating
add to favorites
launch autoscroll
font size
0
reset
how to read this tab
guitar tuner
×
Best way to learn
"Pasaba Por Aquí"
Autoscroll
slow
fast
+/-
esc
set tempo
stop
Aqui esta esta version tal como viene en el cd.
La segunda guitarra lo único que hace es un arreglo de arpegio de fondo.

En la canción son muy importantes los bajeos pues son los que
llevan la linea melódica de fondo.
Excepto en el intro.


*Las notas entre parentesis indican que son de relleno.


INTRO

    G              C

e|-----------------0-----------------0-1-3---|
b|----0---1---3-------------(1)-(1)----------|
g|----0---2---4-------(0)--------------------|
D|-----------------------(2)-----------------|
A|-----------------3-------------------------|
E|--3----------------------------------------|

   A7               D               G7

e|-0----------5-3---2----2h0--------1------------3----|
b|----3-2---------------3-----3--------------(0)------|
g|--------(0)----------2------------------(0)---------|
D|------------------0------------------(0)------------|
A|-0--------------------------------------------------|
E|----------------------------------3-----------------|


    G              C

e|-----------------0-----------------0-1-3---|
b|----0---1---3-------------(1)-(1)----------|
g|----0---2---4-------(0)--------------------|
D|-----------------------(2)-----------------|
A|-----------------3-------------------------|
E|--3----------------------------------------|

   A7               D               G7

e|-0----------5-3---2----2h0--------------------------|
b|----3-2---------------3-----3--------5--3--1--------|
g|--------(0)----------2------------------------------|
D|------------------0---------------------------------|
A|-0--------------------------------------------------|
E|----------------------------------3-----------------|


C
La hora fue, sin duda,
   Em
lo que me hizo subir
   F
al ver aun encendida
   Am                 Dm7
la luz en la ventana de David.

   G
No pienses que te espio,
   C                    [B-Bb]
no llego a ser tan ruin;
   Am
es torpe que tu creas
    A7/C#                         Dm
que quiero sorprenderte en un desliz.
  G
Y bien, que tonteria,
   C         Am
no soy nada sutil,
Dm     Dm/C     G               C
si yo solo pasaba, pasaba por aqui,

(ESTRIBILLO)
            Am
Pasaba por aqui,
                Dm
ningún teléfono cerca
                  G
y no lo pude resistir,
              C
pasaba por aqui.
            Am
pasaba por aqui,
                Dm
ningún teléfono cerca
                  G
y no lo pude resistir,
            F-C
pasaba por aqui.


INTRO

    G              C

e|-----------------0-----------------0-1-3---|
b|----0---1---3-------------(1)-(1)----------|
g|----0---2---4-------(0)--------------------|
D|-----------------------(2)-----------------|
A|-----------------3-------------------------|
E|--3----------------------------------------|

   A7               D               G7

e|-0----------5-3---2----2h0--------1------------3----|
b|----3-2---------------3-----3--------------(0)------|
g|--------(0)----------2------------------(0)---------|
D|------------------0------------------(0)------------|
A|-0--------------------------------------------------|
E|----------------------------------3-----------------|


    G              C

e|-----------------0-----------------0-1-3---|
b|----0---1---3-------------(1)-(1)----------|
g|----0---2---4-------(0)--------------------|
D|-----------------------(2)-----------------|
A|-----------------3-------------------------|
E|--3----------------------------------------|

   A7               D               G7

e|-0----------5-3---2----2h0--------------------------|
b|----3-2---------------3-----3--------5--3--1--------|
g|--------(0)----------2------------------------------|
D|------------------0---------------------------------|
A|-0--------------------------------------------------|
E|----------------------------------3-----------------|


Que esperas que te cuente,
hay poco que decir,
tal vez me vaya un tiempo
no aguanto ya un momento estar aqui.

Te veo muy distinta,
es nuevo ese carmin,
estas mucho mas guapa,
sera que te embellece ser feliz;
y bien que tonteria,
todo esto es tan pueril,
si yo solo pasaba, pasaba por aqui,

(Estribillo)
pasaba por aqui....


e|------3--5---3--5h6p5p3------3------|
b|---5---------------------5----------|
g|-----------------------------0------|
D|------------------------------------|
A|-----------------------------3------|
E|------------------------------------|


cualquier aclaración o transcripción mejorada
Porfa a mi e-mail 
Suggest correction
Give kudos to tab author, rate the tab!
1 2 3 4 5
comments
print report bad tab
guest
You may want to rate the tab now too:
select rating
Wanna post a correction for this tab? Suggest correction