Oops, an error
Loading. Please wait.

Chica Cósmica Chords

by Mezgaya
39 views 1 this week
no commentswrite comment
1 2 3 4 5
3 more votes to show rating
add to favorites
launch autoscroll
font size
0
reset
transpose
0
reset
display chords
guitar tuner
×
Best way to learn
"Chica Cósmica"
Autoscroll
slow
fast
+/-
esc
set tempo
stop
 Chica cosmica ( belen) juaz

1/---------12-12-12-12-12-11-9-7-(6-7)-6-7-9x10-7-5-4-5-4-5-4--
2/-----------------------------------------------------------5-
3/(8-9)999-----------------------------------------------------
4/-------------------------------------------------------------
5/-------------------------------------------------------------
6/-------------------------------------------------------------


1/-------------lo mismo desde el 12 en adelante----------------
2/--5-5-5-5----------------------------------------------------
3/-------------------------------------------------------------
4/-------------------------------------------------------------
5/-------------------------------------------------------------
6/-------------------------------------------------------------
Paréntesis se toca una cuerda y suenan los dos trastes


F                                   C
   quiero de tu boca esa furia loca
Dm                             Am  C
   esa furia loca que me esta matando
F                              C
   quiero de tu ojos tan iluminados
Dm                             Am
   una luz que borre todo mí pasado
C                           Dm
   mujer fatal mujer sensual
C                         Dm
   y extremadamente ilogica
C                           Dm
   dramatisas todos tus movimientos
C                                    Dm
   pero no comprendes lo que yo siento
                                      C
   que estoy enamorado, enamorado de ti
                       Dm
  estoy enamorado enamorado de ti
                                C
  estoy enamorado enamorado de ti
                               Dm
  estoy enamorado enamorado de ti
                                  C
  estoy enamorado enamorado de ti
                                Dm
  estoy enamorado enamorado de ti
                                C
  estoy enamorado enamorado de ti
                                  Dm
  estoy enamorado enamorado de ti...

Este tema esta dedicado para belen, maria daniela, ayelen,
Florencia, para el turco, el chivo, el lula
Y para todos los que nos bancaron desde el pincipio...
desde ahora y por siempre eternamente agradecidos
   El tiru y dario!
Suggest correction
Give kudos to tab author, rate the tab!
1 2 3 4 5
comments
print report bad tab
guest
You may want to rate the tab now too:
select rating
Wanna post a correction for this tab? Suggest correction