Oops, an error
Loading. Please wait.

Dícelo Tab

2 views 1 this week
no commentswrite comment
1 2 3 4 5
3 more votes to show rating
add to favorites
launch autoscroll
font size
0
reset
how to read this tab
guitar tuner
Autoscroll
slow
fast
+/-
esc
set tempo
stop
Help us to improve Ultimate-Guitar.com Take our survey!
×
e/------------------------------------------------------------
b/------------------------3h4h3-------------------------3-----
g/3-3-3---3-3-2-0-2-3------------3-3-3-----3-3-2-0-2-3--------

e/----------------------------------------------------------3s2------
b/3h4h3----------3-3h4h3------------3-3h4------4-----4----------3--3
g/--------5-4-5-------------5-4-5------------5-----5---------------

e/--------------------------------------------------------------------
b/3-4---3h4h3-----------------------------------------------------
g/---------------5--3h5?5-----------------------------------------

e/------------------------------------------------------------
b/------------------------3h4h3-------------------------3h4h3-----
g/3-3-3---3-3-2-0-2-3------------3-3-3-----3-3-2-0-2-3--------


se necesita tecladista y timbaletero
para proyecto serio
zona capital
con experiencia y buenos instrumentos
Suggest correction
Give kudos to tab author, rate the tab!
1 2 3 4 5
comments
print report bad tab
guest
You may want to rate the tab now too:
select rating
Wanna post a correction for this tab? Suggest correction