Oops, an error
Loading. Please wait.

El Cielo Está Muy Lejos Tab

10 views 1 this week
no commentswrite comment
1 2 3 4 5
3 more votes to show rating
add to favorites
launch autoscroll
font size
0
reset
how to read this tab
guitar tuner
×
Best way to learn
"El Cielo Está Muy Lejos"
Autoscroll
slow
fast
+/-
esc
set tempo
stop
|-----------------|-----------------|-----------------|-----------------|
|-----------------|-----------------|-----------------|-----------------|
|----10-8-7----7--|----10-8-7-------|----10-8-7----7--|----10-8-7-------|
|--8--------10----|--8--------10-8--|--8--------10----|--8--------10-8--|
|-----------------|-----------------|-----------------|-----------------|
|-----------------|-----------------|-----------------|-----------------|
                                                                       x2
|-----------------------------------------------------------------------|
|-----------------------------------------------------------------------|
|-----------------------------------------------------------------------|
|-8-8-8-8-8-8-8-8-8-8-8-8-8-8-8-8-8-8-8-8-8-8-8-8-8-8-8-8-8-8-8-8-8-8-8-|
|-----------------------------------------------------------------------|
|-----------------------------------------------------------------------
 [ESTO VA CON LO DE ARRIBA]
|------------|----------------|-------------|-----------------|
|------------|----------------|-------------|-----------------|
|------------|----------------|-------------|-----------------|
|------------|----------------|-------------|-----------------|
|-----5---6--|------5---6-----|------5---6--|------5---6------|
|-6----------|--6----------8--|--6----------|--6-----------8--|


|------17--------------------------|
|----------------------------------|
|----------------------------------|
|----------------------------------|
|----------------------------------|
|----------------------------------|


|---------------------------------------|
|---------------------------------------|
|-----9p2-2-7p2-2-9p2-2-7p2-2-9p2-2-7p2-|
|-777-----------------------------------|
|-777-----------------------------------|
|-555-----------------------------------|

|----------------------|
|----------------------|
|------7h9-7p2-5p2-7p2-|
|-3333-----------------| x4
|-3333-----------------|
|-1111-----------------|

|---------------------------------------|
|---------------------------------------|
|-----9p2-2-7p2-2-9p2-2-7p2-2-9p2-2-7p2-|
|-777-----------------------------------|
|-777-----------------------------------|
|-555-----------------------------------|

|----------------------|
|----------------------|
|------7h9-7p2-5p2-7p2-|
|-3333-----------------| x4
|-3333-----------------|
|-1111-----------------|


Se que estas lagrimas no te haran volver
Pero me sirven de consuelo
|-----------------------------------------|
|-----------------------------------------|
|-----5555555555-----00000000-----4444444-|
|-777------------333----------333---------|
|-777------------333----------333---------|
|-555------------111----------111---------|

|----------------------------------------------------|
|-----------8-6-5-6-5-3-5----------------------------|
|-----55555------------------00000000-----4444444----|
|-777--------------------333----------333----------7-|
|-777--------------------333----------333----------7-|
|-555--------------------111----------111----------5-|

|---------------------------------------19^-|
|---------------------------------------20^-|
|-4/5--5/4----00000000-----4/5--5/4---------|
|-4/5--5/4--3-----------7--4/5--5/4--3------|
|-2/3--3/2--3-----------7--2/3--3/2--3------|
|-----------1-----------5------------1------|


Tratan de llenar el vacio
Que dejaste cuando te fuiste
Te llevaste mi alma y mi corazon
Me llevaste tan alto que mori al caer
|-13--12-13-15--13--12--------------------------------|
|----------------------13---13h15-13---12h13-12--(x2)-|
|-----------------------------------------------------|
|-----------------------------------------------------|
|-----------------------------------------------------|
|-----------------------------------------------------|


|-----------------------------------------------|
|-----------------------------------------------|
|-----------------------------------------------|
|-77--10/9--10/9--10/9--7777--10/9--10/9--10/9--|
|-77---8/7---8/7---8/7--7777---8/7---8/7---8/7--|
|-55--------------------5555--------------------|


F5
Nada podra cambiar


|-----------------------------------------------|
|-----------------------------------------------|
|-----------------------------------------------|
|-77--10/9--10/9--10/9--7777--10/9--10/9--10/9--|
|-77---8/7---8/7---8/7--7777---8/7---8/7---8/7--|
|-55--------------------5555--------------------|

F5        G5       C5
Lo que siento por ti....


|----------------------------------------------
|-5h6-6-6-6-6--------------8-8-------8-8--(x2)-
|-------------7p5p4--4h5-4-----4h5-4-----------
|----------------------------------------------
|----------------------------------------------
|----------------------------------------------


F5        G5               F5              G5
No estas (no estas), es mi ultima oportunidad
A5                         F5  G5  F5    G5    A5
Estas son mis ultimas palabras  ,  te extraño........

Una vez me dijiste
Que tu deseo era ver el mundo
Por fin se hizo realidad
Ahora puedes verlo desde donde estas
(pero el cielo esta muy lejos)
  A5              A5              F5              F5
|---------------|---------------|---------------|---------------|
|---------------|---------------|---------------|---------------|
|-5---4---7---5-|-5---4---7---5-|-5---4---7---5-|-5---4---7---5-|
|---------------|---------------|---------------|---------------|
|---------------|---------------|---------------|---------------|
|---------------|---------------|---------------|---------------|

|-------------------|
|-----6-5--6-5--5-6-|
|-----5-4--5-4--4-5-|
|-77----------------|
|-77----------------|
|-55----------------|


Hubo un abismo que lanzo(el cielo esta muy lejos)
Mi ultima esperanza oooo...
|-------------------|
|-----6-5--6-5--5-6-|
|-----5-4--5-4--4-5-|
|-77----------------|
|-77----------------|
|-55----------------|


  A5
|------------------------------------------
|-6-5----6-5----6-5----6-5----6-5----6-5---
|-----5------5------5------5------5------5-
|------------------------------------------
|------------------------------------------
|------------------------------------------

  F5
|------------------------------------------
|-6-5----6-5----6-5----6-5----6-5----6-5---
|-----5------5------5------5------5------5-
|------------------------------------------
|------------------------------------------
|------------------------------------------

  A5
|------------------------------------------
|-6-5----6-5----6-5----6-5----6-5----6-5---
|-----5------5------5------5------5------5-
|------------------------------------------
|------------------------------------------
|------------------------------------------

  F5
|------------------------------------------
|-6-5----6-5----6-5----6-5----6-5----6-5---
|-----5------5------5------5------5------5-
|------------------------------------------
|------------------------------------------
|------------------------------------------


|----------------------------------------------
|-5h6-6-6-6-6--------------8-8-------8-8--(x2)-
|-------------7p5p4--4h5-4-----4h5-4-----------
|----------------------------------------------
|----------------------------------------------
|----------------------------------------------


F5        G5               F5              G5
No estas (no estas), es mi ultima oportunidad
A5                         F5  G5  F5    G5    A5
Estas son mis ultimas palabras  ,  te extraño........

Terminas en esto:
  C5
|----|
|-5^-|
|----|
|----|
|----|
|----|
Suggest correction
Give kudos to tab author, rate the tab!
1 2 3 4 5
comments
print report bad tab
guest
You may want to rate the tab now too:
select rating
Wanna post a correction for this tab? Suggest correction