Oops, an error
Loading. Please wait.

Activa Tu Fé Tab

34 views 1 this week
no commentswrite comment
1 2 3 4 5
3 more votes to show rating
add to favorites
launch autoscroll
font size
0
reset
how to read this tab
guitar tuner
Autoscroll
slow
fast
+/-
esc
set tempo
stop
Help us to improve Ultimate-Guitar.com Take our survey!
×
Activa tu fe

  |                                                  |
e)|--------------------------------------------------|
B)|--------------------------------------------------|
G)|----------3s5-5-5----------2s3-3-3----------0s2-2-|
D)|--------------------------------------------------|
A)|-3-3--3-3---------3-3--3-3---------3-3--3-3-------|
E)|--------------------------------------------------|

  |                |                                   X 2 Veces
e)|----------------|
B)|----------------|
G)|----------------|
D)|-1-3-1-3--1-3-1-|
A)|----------------|
E)|----------------|


  |                           |
e)|---------------------------|
B)|---------------------------|
G)|-----3s5-----2s3-----0s2-2-|
D)|---------------------------|
A)|-3-3-----3-3-----3-3-------|
E)|---------------------------|

  |                |                                   X 2 Veces
e)|----------------|
B)|----------------|
G)|----------------|
D)|-1-3-1-3--1-3-1-|
A)|----------------|
E)|----------------|


Su nombre es

Cristo, Cristo y tiene poder para sanar toda dolencia
e)|---------------------------|
B)|---------------------------|
G)|-----3s5-----2s3-----0s2-2-|
D)|---------------------------|
A)|-3-3-----3-3-----3-3-------|
E)|---------------------------|


Que puedas tener
e)|----------------|
B)|----------------|
G)|----------------|
D)|-1-3-1-3--1-3-1-|
A)|----------------|
E)|----------------|


No hay nada imposible para Él mi hermano si clamas a su nombre
e)|---------------------------|
B)|---------------------------|
G)|-----3s5-----2s3-----0s2-2-|
D)|---------------------------|
A)|-3-3-----3-3-----3-3-------|
E)|---------------------------|

Te dará la mano
e)|----------------|
B)|----------------|
G)|----------------|
D)|-1-3-1-3--1-3-1-|
A)|----------------|
E)|----------------|

Todo miedo, toda duda saca fuera renueva hoy tu mente
e)|---------------------------|
B)|---------------------------|
G)|-----3s5-----2s3-----0s2-2-|
D)|---------------------------|
A)|-3-3-----3-3-----3-3-------|
E)|---------------------------|

Con la sangre que libera
e)|----------------|
B)|----------------|
G)|----------------|
D)|-1-3-1-3--1-3-1-|
A)|----------------|
E)|----------------|

Activa, activa, activa tu fe Él está presto a ayudarte
e)|---------------------------|
B)|---------------------------|
G)|-----3s5-----2s3-----0s2-2-|
D)|---------------------------|
A)|-3-3-----3-3-----3-3-------|
E)|---------------------------|

Activa tu fe
e)|----------------|
B)|----------------|
G)|----------------|
D)|-1-3-1-3--1-3-1-|
A)|----------------|
E)|----------------|

La bendición de Dios ya se encuentra aquí recíbela mi hermano
e)|---------------------------|
B)|---------------------------|
G)|-----3s5-----2s3-----0s2-2-|
D)|---------------------------|
A)|-3-3-----3-3-----3-3-------|
E)|---------------------------|

Porque es para ti
e)|----------------|
B)|----------------|
G)|----------------|
D)|-1-3-1-3--1-3-1-|
A)|----------------|
E)|----------------|

Reclama tus derechos citando la palabra, confía en sus promesas
e)|---------------------------|
B)|---------------------------|
G)|-----3s5-----2s3-----0s2-2-|
D)|---------------------------|
A)|-3-3-----3-3-----3-3-------|
E)|---------------------------|

Mi Cristo nunca falla
e)|----------------|
B)|----------------|
G)|----------------|
D)|-1-3-1-3--1-3-1-|
A)|----------------|
E)|----------------|


e)|---------|
B)|---------|
G)|---------|
D)|-3-1-3-1-|
A)|---------|
E)|---------|

Declárate en victoria

e)|---------|
B)|---------|
G)|---------|
D)|-3-1-3-1-|
A)|---------|
E)|---------|

Saca de tu memoria

e)|---------|
B)|---------|
G)|---------|
D)|-3-1-3-1-|
A)|---------|
E)|---------|

Pensamientos negativos

e)|---------|
B)|---------|
G)|---------|
D)|-3-1-3-1-|
A)|---------|
E)|---------|

Y ponte positivo


Coro:
  C5             D#5           F5
Activa tu fe, activa tu fe, activa tu fe
   Bb5       B5
Confía mi hermano
  C5             D#5           F5
Activa tu fe, activa tu fe, activa tu fe
  Bb5           B5
Y Dios hará un milagro
  C5             D#5           F5
Activa tu fe, activa tu fe, activa tu fe
   Bb5                  B5
Que se escriba en la historia
  C5             D#5           F5
Activa tu fe, activa tu fe, activa tu fe
             Bb5      B5
Que Él te ha dado victoria


(esto es exactamente lo mismo que al principio)


El enemigo de la fe es la incredulidad

Por eso mucha gente no la puede activar

Mateo 7.7 puede confirmar

Que Él está presto, presto, presto a ayudarte


Reclama su palabra y con devoción

No dudes en tu mente ni en tu corazón

La oración con fe rompe las cadenas

Por eso pide, pide, todo lo que quieras


El a tu lado está, nada te faltará

Y todo aquello que tocare Él prosperará

Olvida circunstancias a tu alrededor

Mira soldado pon tu fe en acción


Declárate en victoria

Saca de tu memoria

Pensamientos negativos

Y ponte positivo


Coro:

F5

Puente:
         C5
La fe mueve montañas
   D#5     F5    C5
Creyendo triunfaras
   F5   C5
Divide hoy los mares
       D#5  F5   C5
Pon el hacha a flotar
                        F5   G5
Y verás que el cielo se abrirá


Coro:
Suggest correction
Give kudos to tab author, rate the tab!
1 2 3 4 5
comments
print report bad tab
guest
You may want to rate the tab now too:
select rating
Wanna post a correction for this tab? Suggest correction