Oops, an error
Loading. Please wait.

Ai Se Eu Te Pego Tab

version 2
version 2

Whole song

Interactive

Video

288 views 1 this week
no commentswrite comment
1 2 3 4 5
3 more votes to show rating
add to favorites
×
Save as Personal and add changes to this tab that will be seen only by you. Learn more ›
×
You can save this tab as Personal to edit and correct it or add notes. All changes will be seen only by you. Learn more »
save as personal
new!
launch autoscroll
font size
0
reset
how to read this tab
guitar tuner
Autoscroll
slow
fast
+/-
esc
set tempo
stop
Esta es la tab de la parte del acordeon.


e-------11--14--------9--14----------11----12-11-9-----
B-12-12---------11-11--------9-9--12----12---------12--
G------------------------------------------------------
D------------------------------------------------------
A------------------------------------------------------
E------------------------------------------------------

e-------11-14--------9-14-12---------12-11-9----
B-12-12--------11-11------------9/12---------12-
G-----------------------------------------------
D-----------------------------------------------
A-----------------------------------------------
E-----------------------------------------------

Notas para toda la cancion

    B   F#   G#m   E
e  |2| |2 | |4  | |0|
B  |3| |2 | |4  | |0|
G  |3| |3 | |4  | |1|
D  |3| |4 | |6  | |2|
A  |2| |4 | |6  | |2|
E  |x| |2 | |4  | |0|


Ritmo de la cancion

      B     B     F#    F#   G#m   G#m    E     E
e--x--2--x--2--x--2--x--2--x--4--x--4--x--0--x--0--
B--x--3--x--3--x--2--x--2--x--4--x--4--x--0--x--0--
G--x--3--x--3--x--3--x--3--x--4--x--4--x--1--x--1--
D--x--3--x--3--x--4--x--4--x--6--x--6--x--2--x--2--
A--x--2--x--2--x--4--x--4--x--6--x--6--x--2--x--2--
E--x--x--x--x--x--2--x--2--x--4--x--4--x--0--x--0--
Suggest correction
Give kudos to tab author, rate the tab!
1 2 3 4 5
comments
print report bad tab
guest
Wanna post a correction for this tab? Suggest correction