Oops, an error
Loading. Please wait.

El Gozo Del Señor Tab

30 views 1 this week
no commentswrite comment
1 2 3 4 5
3 more votes to show rating
add to favorites
launch autoscroll
font size
0
reset
how to read this tab
guitar tuner
Autoscroll
slow
fast
+/-
esc
set tempo
stop
Help us to improve Ultimate-Guitar.com Take our survey!
×
Hola, espero que sea de Bendicion para los guitarristas
ahi les va la intro de esta cancion


e----------------------------------------------------------
B--12---9h10h9h10h9h10h9-----------------------------------
G------------------------9-9h11-9--------8h9h8-------------
D---------------------------------9-9h11-------9h7---------
A--------------------------------------------------9h7-9-9-
E----------------------------------------------------------

e------------------------
B------------------------
G------------------------
D------------------------
A-------7-9h11-9-7-9-7---
E---7h9------------------


E       A       E           B    C#m
////El Gozo del Señor es mi fortaleza
   A        E         B     E
El Gozo del Señor mi fuerza es////
Suggest correction
Give kudos to tab author, rate the tab!
1 2 3 4 5
comments
print report bad tab
guest
You may want to rate the tab now too:
select rating
Wanna post a correction for this tab? Suggest correction