Oops, an error
Loading. Please wait.

Levántate Señor Tab

version 2
version 2

Whole song

568 views 3 this week
no commentswrite comment
1 2 3 4 5
2 more votes to show rating
add to favorites
launch autoscroll
font size
0
reset
how to read this tab
guitar tuner
×
Best way to learn
"Levántate Señor"
Autoscroll
slow
fast
+/-
esc
set tempo
stop
Levantate Señor (AVIVAMIENTO)

Intro:


E ----------------------------
B ---8-10--13--8-10-8---------
G -9------------------7-9-7---
D ---------------------------- x2

Primera guitarra
E ----7-8--12-8-10-8--------
B -10-------------- -8-10-8-
G --------------------------
D --------------------------  x2

Trompetas: Intro
E -------------------------------------
B ---8-8---10--10-8---8-8---8-10-8-10--
G -9-----9----------------9------------

E -------------------7-7-----------
B -----8-8---10-10-8-----10-8--10--
G ---9----9------------------------   Todo X2

Trompetas más los justos...
E ----7-8-------------------------------
B -10-----10(3)-8---8-8-8---8--10-8-10--
G ----------------------- 9-------------

E ----7-8------------12-10-8-7-------
B -10-----10-10-10-8------------8-10-
G -----------------------------------


Poderoso
E ---------------8-8-----------------------------8-10----
B -10-10---8--10----8-10-----10----8--10----8-10---------
G -------9----------------------9------------------------
D -------------------------------------------------------
A -------------------------------------------------------
E -------------------------------------------------------
E ---------------8-8-----------------------------8-10-12-
B -10-10---8--10----8-10-----10----8--10---10-12---------
G -------9----------------------9------------------------
D -------------------------------------------------------
A -------------------------------------------------------
E -------------------------------------------------------
E ---------------8-8-----------------------8-8-7---------
B -10-10---8--10----8-10-----10----8--10-----------------
G -------9----------------------9------------------------
D -------------------------------------------------------
A -------------------------------------------------------
E ------------------------------------------------------- x3

Bendicones aquí les dejo la tablatura de la canción agradecido
De miel san marcos? espero que sea de mucha bendición.
Cualquier comentario o duda aki les dejo mi correo:
Cesgar_ki@
Un saludo grande a mis hermanos de la iglesia
Segadores de vida eterna, col. la paz la lima.
Suggest correction
Give kudos to tab author, rate the tab!
1 2 3 4 5
comments
print report bad tab
guest
You may want to rate the tab now too:
select rating
Wanna post a correction for this tab? Suggest correction