Oops, an error
Loading. Please wait.
28 views 1 this week
no commentswrite comment
1 2 3 4 5
3 more votes to show rating
add to favorites
×
Save as Personal and add changes to this tab that will be seen only by you. Learn more ›
×
You can save this tab as Personal to edit and correct it or add notes. All changes will be seen only by you. Learn more »
save as personal
new!
launch autoscroll
font size
0
reset
how to read this tab
guitar tuner
Autoscroll
slow
fast
+/-
esc
set tempo
stop
Esta es la pura Intro:


   C        G        Am       Em       F       G       

e--0-----0--3--------------------------1-------1---------
B--1---1----3------3--1-----1--0----0--1-----1-1-----3---
G--0-0------4----4----2---2----0---0---2---2---4---4-----
D--------------5------2-2---------2------3-----5-5-------
A--3--------5------------------2-------3-------5---------
E----------------------------------------------3---------

 
   C        G        Am       Em       F       G       

e--0-----0--3---------0----------------1-------1---------
B--1---1----3------3--1-----1--0----0--1-------1--3-3----
G----0------4----4----2---2----0---0---2----4--4--4-4----
D--------------5------2-2---------2-------3----5--5-5----
A--3--------5------------------2-------3-3-----5---------
E----------------------------------------------3---------

     C    G     C

e----0--------------
B----1----3-----1---
G--0---0--4--0--0---
D---------5-----2---
A----3--------------
E-------------------

Soledad.....
Suggest correction
Give kudos to tab author, rate the tab!
1 2 3 4 5
comments
print report bad tab
guest
Wanna post a correction for this tab? Suggest correction