Oops, an error
Loading. Please wait.

Me Falta Corazón Tab

29 views 3 this week
no commentswrite comment
1 2 3 4 5
3 more votes to show rating
add to favorites
launch autoscroll
font size
0
reset
how to read this tab
guitar tuner
Autoscroll
slow
fast
+/-
esc
set tempo
stop
Help us to improve Ultimate-Guitar.com Take our survey!
×
Piano intro

e|---2-------------------------2-----5-2-
b|-----5-3---3-2-----------------5-3-----
g|-4-------------2-----2-4---4----------
d|-------------------4------------------
a|--------------------------------------
E|--------------------------------------


e|--------2?----2----------------------
b|------3---------5-3---3-2------------
g|---4------4---------------2-----2---4
d|4-----------------------------4---4--
a|-------------------------------------
E|-------------------------------------

Guitarra     - El signo de "o" es para bend off
e|----------------------------7-5-5---------
b|--5b7-5b6o5-3---3-3s5?--7-7-------5-5/7---
g|--------------4---------------------------

e|--5------------------------------------
b|7---8---8-7-8-7---5-5s7---5s7-5-3p2-2s3
g|----------------7----------------------
Suggest correction
Give kudos to tab author, rate the tab!
1 2 3 4 5
comments
print report bad tab
guest
You may want to rate the tab now too:
select rating
Wanna post a correction for this tab? Suggest correction