Oops, an error
Loading. Please wait.

Este Mundo Va Tab

122 views 1 this week
no commentswrite comment
1 2 3 4 5
3 more votes to show rating
add to favorites
launch autoscroll
font size
0
reset
how to read this tab
guitar tuner
×
Best way to learn
"Este Mundo Va"
Autoscroll
slow
fast
+/-
esc
set tempo
stop
Notas "raras" usadas...


E -3--5--7--7---7---5----/
B -3--3--5--8---8---5----/
G -0--2--7--7---9---6----/
D -2--2--x--x---9---7----/
A -------7--7---7---7----/
E --------------x---x----/
   1  2  3  4  E#* A/E#*


Intro:
(En parentesis, la postura "base")

  Riff 1                Riff 2

------------3--------------5-----5------------
--------3-----3--------3-----3-----3----------
------0---0-----0--------2-----2--------------
----2----------------2------------------------
----------------------------------------------------
----------------------------------------------------

 Riff 3                 Riff 4

------------7--------------9--0---------------
--------5-----5----------8-------10--8--7-----
------7---7-----7------7----------------------
----------------------------------------------
----7----------------7------------------------
----------------------------------------------------


1                2
El tiempo pasa y no de largo

3            4
y hay quien no se entera que

1          2                   3      4
somos los mismos envueltos en novedad

1            2
Me dices : "Cambia"... sin embargo

3        4
tu entusiasmo sigue ahí

1               2                      3  4
no me has preguntado si me da igual o no

    B#*  B#/A*    B#m     B#m A
Oh! No.


E          E  F#             G
Amor, te escribo y soy testigo

       G   A            E
de lo que se pierde y voy

         E  F#                B#   B# A
a acostumbrarme aunque me cueste...


Dáme al menos tiempo y que respire
no es un arte fácil prometer
dáme al menos tiempo de despedirme


             G
Porque en un mundo que va

        G A
a la velocidad del rayo

   B#
aguanto el vuelo más

        B# A
si me agarro de tu mano

      G           G A            B#  B# A
acompáñame hasta donde pueda llegar


En este mundo que va
como la luz del pensamiento
el mérito está en no quedarme en el intento
y aunque no lo quiera ¿ Que duda cabe ya ?
Que este mundo va


Intro...


Me primavero y me otoño
me estío y me invierno
me adapto con seriedad...
Dáme al menos dos oportunidades
y tus ojos me verán crecer
dáme al menos un par de posibilidades...


Datos adicionales:

e= Mi menor
b= Si menor
A= [ch]A[/ch] mayor, etc, etc...
X*= Nota "X" una octava mas alta...


Hola, amantes de Bosé
En este trabajo hay literalmente horas y mucho entusiasmo.
Me gustaria saber que te parece, asi me motivo a sacar
mas tablaturas.
Escribeme a fenival@


Saludos desde Rengo, Chile.
Suggest correction
Give kudos to tab author, rate the tab!
1 2 3 4 5
comments
print report bad tab
guest
You may want to rate the tab now too:
select rating
Wanna post a correction for this tab? Suggest correction