Oops, an error
Loading. Please wait.

Hojas Secas Tab

47 views 1 this week
no commentswrite comment
1 2 3 4 5
3 more votes to show rating
add to favorites
launch autoscroll
font size
0
reset
how to read this tab
guitar tuner
×
Best way to learn
"Hojas Secas"
Autoscroll
slow
fast
+/-
esc
set tempo
stop
Esta Transcripcion es una mejora a la ya existente, ya que la posicion
de los acordes no coincidia con la cancion original.

por: Carlos Ruiz, caalmali@

INTRO
G      D         C        Em
e--------------------------------
B-/8~--8-10------------------5~--
G-----------11-7-5~--5-7-5-4-----
D--------------------------------
A--------------------------------
E--------------------------------

G      D         C        Em
e--------------------------------
B-/8~--8-10------------------5~--
G-----------11-7-5~--5-7-5-4-----
D--------------------------------
A--------------------------------
E--------------------------------

G     C         D        G
Un adios en la pared, dos palabras.

      C       D            G
Algun dia volvere, rabia amarga.

Em      Am           B7           C
No se es fiel al corazon... si con el alma.

G       C       D               G
Una tarde tu y yo, cuerpo a cuerpo;

    C              D                   G
abrazados, pienso en ti... es que tengo miedo.

Em       Am           B7        C
Pierdo a pulso el corazon, no te miento.

REPITE INTRO
G      D         C        Em
e--------------------------------
B-/8~--8-10------------------5~--
G-----------11-7-5~--5-7-5-4-----
D--------------------------------
A--------------------------------
E--------------------------------

G      D         C        Em
e--------------------------------
B-/8~--8-10------------------5~--
G-----------11-7-5~--5-7-5-4-----
D--------------------------------
A--------------------------------
E--------------------------------

G      C              D       G
He esperado en el anden de tus ojos

      C                 D            G
y mi voz se quiebra en dos, no hay retorno.

Em     Am               B7             C
Llueve triste dentro de mi, me llueve otoño.

(INTRO AL MISMO TIEMPO)
      G    D               C            Em
      Y el vuelve al norte y busca su estrella.

      G    D              C          Em
      Y el sueña que la alcanza y con ella muere.

   G           D
   Hojas secas que al pisar

     C             Em
   me van contando mi soledad.

   G           D
   En silencio viene ya,

    C           Em
   trae sonidos de ciudad.

         B7        Em
         Bebe los vientos,

         B7         Em
         vientos por ella

            e--12p10--
                D     G
         que ya no volvera...
Suggest correction
Give kudos to tab author, rate the tab!
1 2 3 4 5
comments
print report bad tab
guest
You may want to rate the tab now too:
select rating
Wanna post a correction for this tab? Suggest correction