Oops, an error
Loading. Please wait.

Si Puedo Volverte A Ver Chords

version 2
version 2

Whole song

15 views 1 this week
no commentswrite comment
1 2 3 4 5
3 more votes to show rating
add to favorites
launch autoscroll
font size
0
reset
transpose
0
reset
display chords
guitar tuner
×
Best way to learn
"Si Puedo Volverte A Ver"
Autoscroll
slow
fast
+/-
esc
set tempo
stop
-------0--------0--------0-------
------7-7------5-5------3-3------
-----7---7----6---6----4---4-----
---0---------0--------0----------
---------------------------------
---------------------------------


-------0--------0--------1-------
------7-7------5-5------3--------
-----7---7----6---6----4---------
---0---------0--------0----------
---------------------------------
---------------------------------


-------0--------0--------5-------
------7-7------5-5------3--------
-----7---7----6---6----4---------
---0---------0--------0----------
---------------------------------
---------------------------------


-------0--------0---------7--------9-10--
------7-7------5-5-------8-------10--10--
-----7---7----6---6-----9----------------
---0---------0---------0-----------------
----------------------------------------
----------------------------------------

D                        G
En cuanto puede se me escapa

D                       G
y de momento lo que ha sido... fué

D (con arpegeo)          G
en esta ausencia que respiro

D        Bm              G            D
hay algo más... que otras muchas por llover.

Bm          G              A
Cómo aprender a estar perdido?

Bm              G           D             G       A
cómo empezar a hechar de menos cuando estreno corazón?

             G              D            A
Y si es mi suerte que sea fuerte que me queme,

Bm          G          A
todo entero y de una vez.


(coro)
D          G             A
Y cuando quieras te lo escribo,

Bm         G                  D           A
sin un descanso, mientras que hay una pared

D           G                  A
en pleno cielo y por si acaso en el olvido

Bm                       G
que me aguanto lo que muero

D           G       A
Si Puedo Volverte a Ver.

SE REPITE EL INTRO


D                       G
En cuanto puede se me escapa

D          Bm             G
del aire cuelga mis suspiros...bien

D                      G
así de simple, así de grande

D        A           G           D
es algo que... no consigo no querer

Bm            G          D
y no me cabe más paciencia.

Bm             G         D         Bm         A
Estoy cansado de morderme el corazón,no puedo más!

           G            D               A
si es el destino que me rompa a estas alturas,

Bm            G      A
que me parta de una vez... ehhhhh!!


SE REPITE EL CORO


D         G           D
En cada mirada se me va


G                A               Bm
cada abrazo un laberinto que... nunca besare


D       G            D
cada silencio, eternidad y


G                    D           A
cada noche hay un secreto que me da.

SE REPITE EL CORO

al ultimo se repite el intro.

ESTA CANCION ES PARA LA PERSONA QUE HA LLENADO MI VIDA DE MUCHA ALEGRIA Y FELICIDAD
Y QUE AHORA NO ESTA CONMIGO Y LA EXTRAÑO MUCHO
MARIA JOSE CANO IGLESIAS!! TE EXTRAÑO DEMASIADO!!

RiCaRdO ReInA MaNiLlA
     (CHAPARRO)
Suggest correction
Give kudos to tab author, rate the tab!
1 2 3 4 5
comments
print report bad tab
guest
You may want to rate the tab now too:
select rating
Wanna post a correction for this tab? Suggest correction