Oops, an error
Loading. Please wait.

Si Tu No Vuelves Tab

version 1
version 1

Whole song

189 views 3 this week
no commentswrite comment
1 2 3 4 5
3 more votes to show rating
add to favorites
launch autoscroll
font size
0
reset
how to read this tab
guitar tuner
×
Best way to learn
"Si Tu No Vuelves"
Autoscroll
slow
fast
+/-
esc
set tempo
stop
*Intro:

1. -2-----1-----|-2-----1-----|
2. -4---4-2---2-|-4---4-2---2-|
3. -4-4---1-1---|-4-4---1-1---|
4. -4-----3-----|-4-----3-----|
5. -2-----1-----|-2-----1-----|
6. -------------|-------------|


*Verso:


 B             
Si tú no vuelves,
      A#m7
se secarán todos los mares,
        B
y esperaré sin ti,
           A#m7 
tapiado al fondo de algún recuerdo.

 B
Si tú no vuelves,
       A#m7
mi voluntad se hará paqueña,
        B
me quedaré aquí,
           A#m7
junto a mi perro espiando horizontes.

1. -6-6-4-----|-6-6-4-------9--9-11-|-6-6-4-----|-6-6-4--------------|
2. -------7-6-|-------7-6-7---------|-------7-6-|-------7-6-4--------|
3. -----------|---------------------|-----------|-------------3--4-6-|
4. -----------|---------------------|-----------|--------------------|
5. -----------|---------------------|-----------|--------------------|
6. -----------|---------------------|-----------|--------------------|

B
Si tú no vuelves,
       A#m7
no quedarán más que desiertos,
         B
y escucharé por si,
        A#m7
algún latido le queda a ésta tierra.


*Puente:


              B
Que era tan serena

cuando me querías,
                 A#m7
habia un perfume fresco que yo respiraba,
           B                                A#m7
era tan bonita, era así de grande y no tenía fin.


*Coro:

F#                  
Y cada noche vendrá una estrella
             A#m7
a hacerme compañía,
         F#
que te cuente cómo estoy
               C#
y sepas lo que hay,
      F#
dime amor, amor, amor,
              A#m7
estoy aqui ¿no ves?
        F#
si no vuelves no habrá vida,
              C#
no sé lo que haré.


*Solo:


1. -----------------------9-|-9----10----9----10----9----9-----|
2. ---7---6---7---6---7-----|---11----11---11----11---11---7/9-|
3. -6---6---6---6---6---6---|----------------------------------|
4. -------------------------|----------------------------------|
5. -------------------------|----------------------------------|
6. -------------------------|----------------------------------|

1. -6-6-4-----|-6-6-4-------9--9-11-|-6-6-4-----|-6-6-4--------------|
2. -------7-6-|-------7-6-7---------|-------7-6-|-------7-6-4--------|
3. -----------|---------------------|-----------|-------------3--4-6-|
4. -----------|---------------------|-----------|--------------------|
5. -----------|---------------------|-----------|--------------------|
6. -----------|---------------------|-----------|--------------------| 


*Verso:


B
Si tú no vuelves,
            A#m7
no habrá esperanza ni habrá nada,
       B
caminaré sin ti,
          A#m7
con mi tristeza bebiendo lluvia.


*Puente:


              B
Que era tan serena

cuando me querías,
                 A#m7
habia un perfume fresco que yo respiraba,
           B                                A#m7
era tan bonita, era así de grande y no tenía fin.


*Coro:


F#                  
Y cada noche vendrá una estrella
             A#m7
a hacerme compañía,
         F#
que te cuente cómo estoy
               C#
y sepas lo que hay,
      F#
dime amor, amor, amor,
              A#m7
estoy aqui ¿no ves?
        F#
si no vuelves no habrá vida,
              C#
no sé lo que haré.


F#                  
Y cada noche vendrá una estrella
             A#m7
a hacerme compañía,
         F#
que te cuente cómo estoy
               C#
y sepas lo que hay,
      F#
dime amor, amor, amor,
              A#m7
estoy aqui ¿no ves?
        F#
si no vuelves no habrá vida,
              C#
no sé lo que haré.


*Outro:


1. -----------------------9-|-9----10----9----10----9----9-----|
2. ---7---6---7---6---7-----|---11----11---11----11---11---7/9-|
3. -6---6---6---6---6---6---|----------------------------------|
4. -------------------------|----------------------------------|
5. -------------------------|----------------------------------|
6. -------------------------|----------------------------------|


1. -----------------------9-|-9----10----9----10----9----9-----|
2. ---7---6---7---6---7-----|---11----11---11----11---11---7/9-|
3. -6---6---6---6---6---6---|----------------------------------|
4. -------------------------|----------------------------------|
5. -------------------------|----------------------------------|
6. -------------------------|----------------------------------|


1. -6-6-4-----|-6-6-4-------9--9-11-|-6-6-4-----|-6-6-4--------------|
2. -------7-6-|-------7-6-7---------|-------7-6-|-------7-6-4--------|
3. -----------|---------------------|-----------|-------------3--4-6-|
4. -----------|---------------------|-----------|--------------------|
5. -----------|---------------------|-----------|--------------------|
6. -----------|---------------------|-----------|--------------------|
Suggest correction
Give kudos to tab author, rate the tab!
1 2 3 4 5
comments
print report bad tab
guest
You may want to rate the tab now too:
select rating
Wanna post a correction for this tab? Suggest correction