Oops, an error
Loading. Please wait.

Si Tu No Vuelves Tab

version 3
version 3

Whole song

164 views 1 this week
no commentswrite comment
1 2 3 4 5
3 more votes to show rating
add to favorites
launch autoscroll
font size
0
reset
how to read this tab
guitar tuner
×
Best way to learn
"Si Tu No Vuelves"
Autoscroll
slow
fast
+/-
esc
set tempo
stop
Se cambió el coro debido a que estaba erróneo
el acorde Am#7 fue cambiado por Bmaj7 que es el correcto
( si ponen la cancion y la siguen veran que no miento)

Se cambio la tonalidad principal a Bmaj7,
se puede usar B en lugar de Bmaj7, pero el maj7  le da ese toque
como de suspension a la melodia por la voz tipo jazz del acorde,
tambien se agregaron mas posiciones de acordes, debido a que la
linea principal unicamente se mueve sobre 1 semitono.

Acordes      EADGBe
Bmaj7       (x24342)
A#m7        (x13121)
Bmaj7       (7x887x)
A#m7        (5x555x)
F#          (244322)
C#          (x46664)

X= No se usa o se ahoga esa cuerda
Intercambien las voces de los acordes para que no se vuelva
monótona esta genial cancion
Dedicada para una nena que jamás olvidaré.
Una de mis guitarras lleva su nombre ( Tú sabes cual :P )
**********************************************************


*Intro:
   Bmaj7 |A#m7  Bmaj7 | A#m7
1. -2-----1-----|-2-----1-----|
2. -4---4-2---2-|-4---4-2---2-|
3. -3-4---1-1---|-3-4---1-1---|
4. -4-----3-----|-4-----3-----|
5. -2-----1-----|-2-----1-----|
6. -------------|-------------|


*Verso:


Bmaj7
Si tú no vuelves,
      A#m7
se secarán todos los mares,
        Bmaj7
y esperaré sin ti,
                A#m7
tapiado al fondo de algún recuerdo.

Bmaj7
Si tú no vuelves,
        A#m7
mi voluntad se hará pequeña,
            Bmaj7
me quedaré aquí,
           A#m7
junto a mi perro espiando horizontes.


( Bmaj7 -A#m7 ) 2 veces
Solo de cellos:

1. -6-6-4-----|-6-6-4-------9--9-11-|-6-6-4-----|-6-6-4--------------|
2. -------7-6-|-------7-6-7---------|-------7-6-|-------7-6-4--------|
3. -----------|---------------------|-----------|-------------3--4-6-|
4. -----------|---------------------|-----------|--------------------|
5. -----------|---------------------|-----------|--------------------|
6. -----------|---------------------|-----------|--------------------|


Bmaj7
Si tú no vuelves,
        A#m7
no quedarán más que desiertos,
         Bmaj7
y escucharé por si,
           A#m7
algún latido le queda a ésta tierra.


*Puente:


              Bmaj7
Que era tan serena

cuando me querías,
                 A#m7
habia un perfume fresco que yo respiraba,
        Bmaj7                                A#m7
era tan bonita, era así de grande y no tenía fin.


*Coro:

F#
Y cada noche vendrá una estrella
               Bmaj7
a hacerme compañía,
         F#
que te cuente cómo estoy
               C#
y sepas lo que hay,
      F#
dime amor, amor, amor,
               Bmaj7
estoy aqui ¿no ves?
        F#
si no vuelves no habrá vida,
              C#
no sé lo que haré.


*Solo: ( F# - Bmaj7 - F# C# -) 2 veces
            ( Bmaj7 -A#m7 ) 2 veces
TAB:

1. -----------------------9-|-9----10----9----10----9----9-----|
2. ---7---6---7---6---7-----|---11----11---11----11---11---7/9-|
3. -6---6---6---6---6---6---|----------------------------------|
4. -------------------------|----------------------------------|
5. -------------------------|----------------------------------|
6. -------------------------|----------------------------------|

1. -6-6-4-----|-6-6-4-------9--9-11-|-6-6-4-----|-6-6-4--------------|
2. -------7-6-|-------7-6-7---------|-------7-6-|-------7-6-4--------|
3. -----------|---------------------|-----------|-------------3--4-6-|
4. -----------|---------------------|-----------|--------------------|
5. -----------|---------------------|-----------|--------------------|
6. -----------|---------------------|-----------|--------------------|


*Verso:


Bmaj7
Si tú no vuelves,
         A#m7
no habrá esperanza ni habrá nada,
      Bmaj7
caminaré sin ti,
             A#m7
con mi tristeza bebiendo lluvia.


*Puente:


              Bmaj7
Que era tan serena

cuando me querías,
                 A#m7
habia un perfume fresco que yo respiraba,
        Bmaj7                                A#m7
era tan bonita, era así de grande y no tenía fin.


*Coro:


F#
Y cada noche vendrá una estrella
               Bmaj7
a hacerme compañía,
         F#
que te cuente cómo estoy
               C#
y sepas lo que hay,
      F#
dime amor, amor, amor,
               Bmaj7
estoy aqui ¿no ves?
        F#
si no vuelves no habrá vida,
              C#
no sé lo que haré.


F#
Y cada noche vendrá una estrella
               Bmaj7
a hacerme compañía,
         F#
que te cuente cómo estoy
               C#
y sepas lo que hay,
      F#
dime amor, amor, amor,
               Bmaj7
estoy aqui ¿no ves?
        F#
si no vuelves no habrá vida,
              C#
no sé lo que haré.

*Outro:
( F# - Bmaj7 - F# C# -) se repite hasta k se acaba ...

TAB:

1. -----------------------9-|-9----10----9----10----9----9-----|
2. ---7---6---7---6---7-----|---11----11---11----11---11---7/9-|
3. -6---6---6---6---6---6---|----------------------------------|
4. -------------------------|----------------------------------|
5. -------------------------|----------------------------------|
6. -------------------------|----------------------------------|


1. -----------------------9-|-9----10----9----10----9----9-----|
2. ---7---6---7---6---7-----|---11----11---11----11---11---7/9-|
3. -6---6---6---6---6---6---|----------------------------------|
4. -------------------------|----------------------------------|
5. -------------------------|----------------------------------|
6. -------------------------|----------------------------------|


1. -6-6-4-----|-6-6-4-------9--9-11-|-6-6-4-----|-6-6-4--------------|
2. -------7-6-|-------7-6-7---------|-------7-6-|-------7-6-4--------|
3. -----------|---------------------|-----------|-------------3--4-6-|
4. -----------|---------------------|-----------|--------------------|
5. -----------|---------------------|-----------|--------------------|
6. -----------|---------------------|-----------|--------------------|
Suggest correction
Give kudos to tab author, rate the tab!
1 2 3 4 5
comments
print report bad tab
guest
You may want to rate the tab now too:
select rating
Wanna post a correction for this tab? Suggest correction