Oops, an error
Loading. Please wait.

Tal Vez Eres Tú Tab

14 views 1 this week
no commentswrite comment
1 2 3 4 5
3 more votes to show rating
add to favorites
launch autoscroll
font size
0
reset
how to read this tab
guitar tuner
Autoscroll
slow
fast
+/-
esc
set tempo
stop
Help us to improve Ultimate-Guitar.com Take our survey!
×
TAL VEZ ERES TU

Bueno, yo aki otra vez, les envió ahora esta transcripción,  es una buena rola, tiene 
buen ritmo y esta padre. Espero que la disfruten...


INTRO (Se repite dos veces)


--10-10-10-10--------------17----12-15----12-13----13-12--12--12--------15----13-12-10--
--------------13-12---------------------------------------------------------------------
--------------------14--14----14-------14-------14----------------14-14----14-----------
----------------------------------------------------------------------------------------
----------------------------------------------------------------------------------------
----------------------------------------------------------------------------------------

                    Am                       F                       C
--10-10-10-10--------------17----12-15----12-13----13-12--12--12--------15----13-12-10--
--------------13-12---------------------------------------------------------------------
--------------------14--14----14-------14-------14----------------14-14----14-----------
----------------------------------------------------------------------------------------
----------------------------------------------------------------------------------------
----------------------------------------------------------------------------------------
  G
--10-10-10-10---------------------------------------------------------------------------
--------------13-12---------------------------------------------------------------------
--------------------14------------------------------------------------------------------
----------------------------------------------------------------------------------------
----------------------------------------------------------------------------------------
----------------------------------------------------------------------------------------


                Am      F             C           G
Busco entre las sombras, algo que me dé satisfacción

            Am  F             C            G 
Busco una mirada, un refugio para estar mejor

                Am              F           C           G           
Alguien que me lleve al fin del horizonte, donde la verdad se esconde

  Am          F            C            G
Que acaricie mis palabras, que me salve de la nada

Dm                  G 
Un alma donde descansar?


CORO:

               Am            F                 C          G
Alguien que me toque el corazón y me quite el frío del temor

             Am            F             C                G
Algo que me ayude a conseguir, olvidar heridas que hay en mí

         Am     F         C   G
Tal vez eres tú, tal vez eres tú

         Am     F         C   G
Tal vez eres tú, tal vez eres tú


   Am       F         C        G   
-------------------------------------------------
-------------------------------------------------
--12--12/14----12/14--14/12----12-12-10-10-9--9--
-------------------------------------------------
-------------------------------------------------
-------------------------------------------------


              Am  F          C            G
Busco por el cielo, algo parecido a una señal

                 Am   F               C              G
Busco entre mis sueños, para no estar solo al despertar

Dm                             G
Sentir que hay alguien junto a mí


CORO:

               Am            F                 C          G
Alguien que me toque el corazón y me quite el frío del temor

             Am            F             C                G
Algo que me ayude a conseguir, olvidar heridas que hay en mí

         Am     F         C   G
Tal vez eres tú, tal vez eres tú

         Am     F         C   G
Tal vez eres tú, tal vez eres tú


Puente: 

  F    Am        F    Am        F    Am        F     G
--1---3-0--0-----1---3-0--0-----1---3-0--0-----1-----3-3-3-3-3-3-3-3-3-3-3-3-3-3-3--
--1---3-1--1-----1---3-1--1-----1---3-1--1-----1-----3-3-3-3-3-3-3-3-3-3-3-3-3-3-3--
--2---4-2--0-----2---4-2--0-----2---4-2--0-----2-----4-4-4-4-4-4-4-4-4-4-4-4-4-4-4--
--3---5-2--2-----3---5-2--2-----3---5-2--2-----3-----5-5-5-5-5-5-5-5-5-5-5-5-5-5-5--
--3---5-0--3-----3---5-0--3-----3---5-0--3-----3-----5-5-5-5-5-5-5-5-5-5-5-5-5-5-5--
--1---3-0--0-----1---3-0--0-----1---3-0--0-----1-----3-3-3-3-3-3-3-3-3-3-3-3-3-3-3--
                          Tal vez eres tú


             Am F             C       G                Am F             C       G
--12-10-8-10-------12-10-8-10-12------------12-10-8-10-------12-10-8-10-12------------
-------------10----------------------------------------10-----------------------------
---------------------------------9-10--------------------------------------9-10-------
--------------------------------------12----------------------------------------12----
--------------------------------------------------------------------------------------
--------------------------------------------------------------------------------------

               

CORO:

               Am            F                 C          G
Alguien que me toque el corazón y me quite el frío del temor

             Am            F             C                G
Algo que me ayude a conseguir, olvidar heridas que hay en mí

         Am     F          Am  F
Tal vez eres tú, tal vez eres tú

         Am     F            
Tal vez eres tú, 


Ojalá les haya gustado, esta canción se la dedico a Mariana, aunque ella no lo sepa porque no entra aqui
ustedes serán mis confidentes ya que ella es una chava más linda y tierna que pa mi gusto he conocido.

cybermikeld@
Suggest correction
Give kudos to tab author, rate the tab!
1 2 3 4 5
comments
print report bad tab
guest
You may want to rate the tab now too:
select rating
Wanna post a correction for this tab? Suggest correction