Oops, an error
Loading. Please wait.

Amigos Tab

19 views 1 this week
no commentswrite comment
1 2 3 4 5
3 more votes to show rating
add to favorites
launch autoscroll
font size
0
reset
how to read this tab
guitar tuner
Autoscroll
slow
fast
+/-
esc
set tempo
stop
Con Capo en el 1er. Traste

Intro
          |---A---| |-----Bm-----| |--Cm--|  |-----Bm-----|
e|-5.-4.-2.--0-----------------------------------------------|
B|-----------2---2-----3-----3/2------5-----5---3-----3------|
G|-----------2---2-----4---4-----4/2--6---------4---2---2----|
D|-------------2---2-----4--------------6-7-------4-------4--|
A|-----------0---------2--------------4---------2------------|
E|-----------------------------------------------------------| 

   |---A---| |-----Bm-----| |--Cm--|  |-----Bm------|
e|---------------------------------------------------|
B|--2---2-----3-----3/2------5-----5---3---3---3---3-|
G|--2---2-----4---4-----4/2--6---------4---4---4---4-|
D|----2---2-----4--------------6-7-------4---4---4---|
A|--0---------2--------------4---------2-------------|
E|---------------------------------------------------| 

A             E
Amigo, eres mi amigo
          F#m                   D
aunque a veces ya no parezca igual
             A                 E
porque cada uno sigue su camino 
                      A   (Riff)
y ya no hay tiempo para hablar.

Riff
   |---A---| |-----Bm-----| |-A-|
e|-------------------------------|
B|--2---2-----3-----3/2-------2--|
G|--2---2-----4---4-----4/2---2--|
D|----2---2-----4----------------|
A|--0---------2---------------0--|
E|-------------------------------|

A             E
Amigo, eres mi amigo
      F#m               D
por tantos momentos compartidos
             A                    E             A            
por cada trocito, trocito de tu vida que me regalas.

E - E* - E 

Coro
    D                       E
Amigos, aunque pasen muchas cosas
                         F#m          E
aunque el tiempo nos separe, tú estarás conmigo.
    D                        A
Amigos, aunque hallamos discutido
               E         E* - E  
y hasta nos herimos sin querer.
      A   (Intermedio)
eres mi amigo...

Intermedio
   |---A---| |-----Bm-----| |--Cm--|  |-----Bm------|
e|---------------------------------------------------|
B|--2---2-----3-----3/2------5-----5---3---3---3---3-|
G|--2---2-----4---4-----4/2--6---------4---4---4---4-|
D|----2---2-----4--------------6-7-------4---4---4---|
A|--0---------2--------------4---------2-------------|
E|---------------------------------------------------| 

A               E
Amigo, escúchame amigo
            F#m                        D
cuando las lágrimas no te dejen soñar
    A                               E 
recuerda que en Jesús tienes un amigo
                       A  (Riff)
que siempre piensa en ti.

A                E
Amigo, escúchame amigo
           F#m                      D
cuando te sientas muy solo y vacío
    A                              E 
recuerda que aquí tienes un amigo
                   A
que siempre piensa en ti.

E - E* - E

Coro
    D                       E
Amigos, aunque pasen muchas cosas
                         F#m          E
aunque el tiempo nos separe, tú estarás conmigo.
    D                        A
Amigos, aunque hallamos discutido
               E          E* - E  
y hasta nos herimos sin querer.
         A
eres mi amigo...

Final:
   |---A---| |-----Bm-----| |--Cm--|  |---Bm---| |--A--|
e|------------------------------------------------------|
B|--2---2-----3-----3/2------5-----5---3---3---------2--|
G|--2---2-----4---4-----4/2--6---------4---4--------2---|
D|----2---2-----4--------------6-7-------4---4-----2----|
A|--0---------2--------------4---------2----------0-----|
E|------------------------------------------------------|
   |------------------2 Veces------------------|

E* = 022200


Dios en su infinita misericordia busca diferentes maneras de acercarse al hombre, 
y un día pensando se dijo ?Voy a acercarme al hombre en un sentimiento que voy a 
llamar AMISTAD y la persona que se arriesgue a vivirla se llamará AMIGO?
Una verdadera amistad no debe romperse por tonterías.

                                    Miguel Quiñones  :)
Suggest correction
Give kudos to tab author, rate the tab!
1 2 3 4 5
comments
print report bad tab
guest
Wanna post a correction for this tab? Suggest correction