Oops, an error
Loading. Please wait.

La Fuerza De Tu Amor Chords

30 views 1 this week
no commentswrite comment
1 2 3 4 5
3 more votes to show rating
add to favorites
launch autoscroll
font size
0
reset
transpose
0
reset
simplify chords
display chords
guitar tuner
×
Best way to learn
"La Fuerza De Tu Amor"
Autoscroll
slow
fast
+/-
esc
set tempo
stop
Intro: D - A - Bm - Bm/A - G - D - G - A

          D                        G   A
Quiero estar cerca de ti, Señor Jesús
          D
quiero estar en tu corazón
       G                  A
y sentir el fuego de tu amor.


        Em
Porque lejos de ti (lejos de ti)
     A       A7
no puedo vivir.

        D        A             Bm
Porque lejos de ti no existen días
F#m             G         D           Em
no existen alegrías, no existen los sueños
     A         D        A           Bm
no existe el amor, no existe el perdón
    F#m       G      D       Em  A        D
no existe la vida, lejos de ti, Señor Jesús.


e|-9h10-10.--9h10----------7h8-8-7---10-8-7h8h7-----
B|----------------10-10.-----------8------------8.--
G|--------------------------------------------------
D|--------------------------------------------------
A|--------------------------------------------------
E|--------------------------------------------------

e|--9---10---10s12-10-12s14.--10------------|
B|--10--10--------------------10--8h10-10.--|
G|------------------------------------------|
D|------------------------------------------|
A|------------------------------------------|
E|------------------------------------------|


*Sube de tono

          D#                       G#  A#
Quiero estar cerca de ti, Señor Jesús
          D#
quiero estar en tu corazón
      G#                  A#
y sentir el fuego de tu amor.

        Fm
Porque lejos de ti (lejos de ti)
     A#       A#7
no puedo vivir.

        D#       A#            Cm
Porque lejos de ti no existen días
Gm              G#        D#         Fm
no existen alegrías, no existen los sueños
     A#         D#      A#          Cm
no existe el amor, no existe el perdón
   Gm         G#      D#     G#
no existe la vida, lejos de ti...
        D#       A#            Cm
Porque lejos de ti no existen días
Gm              G#        D#         Fm
no existen alegrías, no existen los sueños
     A#         D#      A#          Cm
no existe el amor, no existe el perdón
   Gm         G#      D#     Fm  A#      D#
no existe la vida, lejos de ti, Señor Jesús.
Suggest correction
Give kudos to tab author, rate the tab!
1 2 3 4 5
comments
print report bad tab
guest
You may want to rate the tab now too:
select rating
Wanna post a correction for this tab? Suggest correction