Oops, an error
Loading. Please wait.

Me Enamoré De Tí Chords

version 1
version 1

Whole song

10 views 1 this week
no commentswrite comment
1 2 3 4 5
3 more votes to show rating
add to favorites
launch autoscroll
font size
0
reset
transpose
0
reset
display chords
guitar tuner
Autoscroll
slow
fast
+/-
esc
set tempo
stop
Help us to improve Ultimate-Guitar.com Take our survey!
×
B - F# - E - Em

Intro
e|------------------------------------------------------------|
B|-------------------7-6/7-4.------7-7-5-4---------7-7-5-4----|
G|---4-6..-4.----4-6-----------4-6---------4.--4-6---------4--|
D|-4-----------4----------------------------------------------|
A|------------------------------------------------------------|
E|------------------------------------------------------------|

          B                  F#
Me enamoré de ti, de verdad yo no pensaba
      E                  Em
que estarías en mi vida, pero el amor es así.
      B                        F#
Compartimos tantas cosas, alegrías y tristezas
     E                              Em                        B
temores e ilusiones que me hicieron sentir más cerca de ti...

      F#                  E
Tan cerca que me hace soñar
      Em                    B                 F#            E
sentir que vale la pena vivir, para amar.

       B                        F#
Por eso me duele, cuando veo indiferencia en ti
      E                      Em
si con sólo una sonrisa, me siento feliz.
      B                              F#
Pero tengo miedo de decirte lo que me está sucediendo
      E                       Em                        B
que te amo demasiado, que quiero tenerte cerca de mi...

      F#                  E
Tan cerca que me haga soñar
      Em                    B                 F#
sentir que vale la pena vivir, para amar.

Solo
e|----------6-7..-6/7.-6/4-6.--------------------------------
B|-----5-7--------------------4-5-7-5-4----------------------
G|-4-6----------------------------------4/1-4-6-6/7.-7/6-4.--
D|-----------------------------------------------------------
A|-----------------------------------------------------------
E|-----------------------------------------------------------

e|-----------------------------------------------------------------------
B|----------------5------------------------------------12.-11/12-11------
G|-----4-6/7.-6-4---7-7..--------------------8.-10/11.--------------11---
D|-4-6-----------------------------------7-9-----------------------------
A|--------------------------------7-9-10---------------------------------
E|-------------------------7-9-10----------------------------------------

e|-----------------------------------------------|
B|-----------------------------------------------|
G|-8/9-8-------------------9-11-12..-etc..-etc..-|
D|-------9-8/9-8.--9-11-12-----------------------|
A|-----------------------------------------------|
E|-----------------------------------------------|

       B            F#                       E
De mi..., tan cerca que me haga soñar
  Em                        B                 F#           
sentir que vale la pena vivir, para amar... oooh...

B           F#                          E
      Tan cerca que me haga soñar
  Em                        B               F#
sentir que vale la pena vivir, para amar.
Suggest correction
Give kudos to tab author, rate the tab!
1 2 3 4 5
comments
print report bad tab
guest
You may want to rate the tab now too:
select rating
Wanna post a correction for this tab? Suggest correction