Oops, an error
Loading. Please wait.

Oh Dulce María Chords

36 views 1 this week
no commentswrite comment
1 2 3 4 5
3 more votes to show rating
add to favorites
×
Save as Personal and add changes to this tab that will be seen only by you. Learn more ›
×
You can save this tab as Personal to edit and correct it or add notes. All changes will be seen only by you. Learn more »
save as personal
new!
launch autoscroll
font size
0
reset
transpose
0
reset
simplify chords
display chords
guitar tuner
Autoscroll
slow
fast
+/-
esc
set tempo
stop
Strumming
There is no strumming pattern for this song yet. and get +5 IQ
Intro
e|-7--7/8--10-8--7-5--5/7-8--7-5-3--2/3-5-----3-5.--|
B|-8--8/10-12-10-8-7--7/8-10-8-7-5--3/5-7---5-------|
G|----------------------------------------7---------|
D|--------------------------------------------------|
A|--------------------------------------------------|
E|--------------------------------------------------|

e|-7--7/8--10-8--7-5--5/7-8--7-5-3------------5.--|
B|-8--8/10-12-10-8-7--7/8-10-8-7-5-----8.---------|
G|---------------------------------5/7----5/7-----|
D|------------------------------------------------|
A|------------------------------------------------|
E|------------------------------------------------|


G                  Bm7               C                        G
    Te doy gracias Jesús, por entregarnos, entregarnos a María
G                  Bm7            C                           G
     la servidora del Señor, llena de gracia, mi Madre amiga.

C            G                     C
     Enséñame a ser humilde como tú
G            Am            D
a confiar en Dios, como siempre tú lo hiciste.

            G    C                                    G
Oh Dulce María,       enséñame a amar como la haces tú
C                           Bm7               C                       G
     haciendo siempre la voluntad de Dios,     haciendo su voluntad.

G                  Bm7            C                        G
    Te doy gracias María, porque siempre intercedes por nosotros
G                  Bm7            C                        G
     te doy gracias Mamá, por regalarnos tu inmaculado corazón.

C            G                     C
     Enséñame a entregarme como tú
G            Am            D
a confiar en Dios, como siempre tú lo hiciste.

            G    C                                    G
Oh Dulce María,       enséñame a amar como la haces tú
C                           Bm7               C                       G
     haciendo siempre la voluntad de Dios,     haciendo su voluntad.

G    C                                    G
Oh Dulce María,       enséñame a amar como la haces tú
C                           Bm7               C                       G
     haciendo siempre la voluntad de Dios,     haciendo su voluntad.
C                  G            C
     haciendo su voluntad.

G                  Bm7                 C            Am   D      G
      Te doy gracias Señor, por entregarnos, entregarnos a María.

Final
                             G
e|---------------------------------3---|
B|---------------------------------3---|
G|-4-5-7.-5-4-2.-2-4-5-4-2/4-0..---0---|
D|---------------------------------0---|
A|---------------------------------2---|
E|---------------------------------3---|
Suggest correction
Give kudos to tab author, rate the tab!
1 2 3 4 5
comments
print report bad tab
guest
Wanna post a correction for this tab? Suggest correction