Oops, an error
Loading. Please wait.

Todo A Pulmón Tab

53 views 1 this week
no commentswrite comment
1 2 3 4 5
3 more votes to show rating
add to favorites
launch autoscroll
font size
0
reset
how to read this tab
guitar tuner
Autoscroll
slow
fast
+/-
esc
set tempo
stop
Help us to improve Ultimate-Guitar.com Take our survey!
×
Intro   Riff 1  (2)

Riff 1
       E(4)          A(5)      E(4)         A(5)
e---------4-----4--7--7---------4-----4------5------
B--5--7---5-----5-----5---5--7--5-----5------5------
G------------4--------6------------4-----4---6------
D---------------------------------------------------
A---------------------------------------------------
E---------------------------------------------------

        E           A
Qué difícil se me hace,
      E              A
mantenerme en este viaje,
       E     /D#   C#m7        F#  F#sus  F#
sin saber a dónde voy en realidad.
          Am              D
Si es de ida o de vuelta,
           E     /D#   C#m7
si el furgón es la primera,
      F#m         B              E   A  B
si volver es otra forma, de llegar.

Qué difícil se me hace,
cargar todo este equipaje,
se hace dura la subida al caminar.
Esta realidad tirana,
que se ríe a carcajadas,
porque espera que me canse, de buscar.

CORO
       E         E7         A            Am
Cada nota, cada idea, cada paso en mi carrera,
         E                    B
y la estrofa de mi última canción,
       E         E7          A           Am
cada fecha postergada, la salida y la llegada,
       E         B          C            Am  B         E  Riff 2
y el oxígeno de mi, respiración, todo a pulmón, todo a pulmón.


Que difícil se me hace,
mantenerme con coraje,
lejos de la tranza y la prostitución.
Defender mi ideología,
buena o mala pero mía,
tan humana como la, contradicción.

Qué difícil se me hace,
seguir pagando el peaje,
de esta ruta de locura y ambición.
Un amigo en la carrera,
una luz y una escalera,
y la fuerza de hacer todo, a pulmón.

CORO


Riff 2

e---------7--------------7---------------7----------------7-------
B-----7-----10-9-----7-----10-9------7-----10-9-------7-----10-9--
G---9---9----------9---9-----------9---9------------9---9---------
D------------------------------------------------0----------------
A-----------------------------------------------------------------
E-0--------------6--------------7---------------------------------
Suggest correction
Give kudos to tab author, rate the tab!
1 2 3 4 5
comments
print report bad tab
guest
You may want to rate the tab now too:
select rating
Wanna post a correction for this tab? Suggest correction