Oops, an error
Loading. Please wait.

Déjenme Llorar Tab

113 views 1 this week
2 commentsread comments
1 2 3 4 5
2 more votes to show rating
add to favorites
launch autoscroll
font size
0
reset
how to read this tab
guitar tuner
×
Best way to learn
"Déjenme Llorar"
Autoscroll
slow
fast
+/-
esc
set tempo
stop
Esta cancion esta en el tono de LA.  Toda la tablura es lo que toca
la guitarra de doce cuerdas. Lleva mas adornos pero son los mismo pero
a diferente  dos versiones de esta  A LA
FAMILIA MENDOZA NIETO DE LA  COL. ESTACION DE EBANO SAN LUIS POTOSI.


INTRO:

E-7-7--5-4-2-4--4----------7-7--4-5-4-2--2---0-0-0-0-0-0-0-0-0----
B-9-9--7-5-3-5--5----------9-9--5-7-5-3--3---2-2-2-2-2-2-2-2-2----
G-----------------------------------------------------------------
D-----------------4--4---------------------------------------------
A------------------------------------------------------------------
E-----------------------0------------------------------------------

E-7-7--5-4-2-4------------------------0--2--2--0--0-----------------
B-9-9--7-5-3-5------------------------2--3--3--2--0----2------------
G------------------------------------------------------2---------2---
D---------------2--2--0--------------------------------2--4-2-------
A---------------2--------2--0----------------------------------4----
E---------------0----------------4-----------------------------------

              (A)
A-------------0--
E-2----4--------
 dejenme llorar G---------2--
                D--4--2------
                A-------4----

                E7     E--4-5-5-5-6-7--
porque estoy herido    B--5-7-7-7-8-9--

              G-------7-----
              D----6--------
              A-7-----------
quien en este mundo

no ha llorado nunca
             A
por algun motivoD--4-2---0-------22222224444444666666667
                A---------4-2--0--------------------------

              A   G---2--2--------------
dejenme llorar    D---2-----4--2--------
                  A---2------------4--0-


                      B---3-2-0------------
 A7            D      G--------2---0-------
como llora un niño    D----------------0---


                 A
cuando le han robado

F#7   F7    E7
el lindo juguete

               A     E-2-0-----------------
que mas ha querido   B-------3-2-3-2-0-----
                     G-------------------2-

              E7    E--4-5-5-5-6-7----
quien me la robo    B--5-7-7-7-8-9----

             A      G------------2--
no sabria decirlo   D-4--2----------
                    A-------4-------

                 E7    E-4-55555-6-7--
si antes de ser yo     B-5-77777-8-9--
           A
tuvo mil amigos   G-6----------6---
                  D-7-7-7-7-6--7---
                  A---9-9-9-7------

alguien regreso
A7              D
y le hablo al oido
            A
para convencerla

F#7    F7      E7     (estas notas se utilizan en la segunda vez
y ella se entrego      que se canta el verso)
               A    (A7  D)
por algun motivo

E-7-7--5-4-2-4-----------------7-7--4-5-4-2--2--5-5-5-5-5-5-5-5-5 ---
B-9-9--7-5-3-5-----------------9-9--5-7-5-3--3--2-2-2-2-2-2-2-2-2----
G--------------------------------------------------------------------
D---------------2--2-0-----------------------------------------------
A---------------2-------2-0------------------------------------------
E---------------0------------4---------------------------------------

E-7-7--5-4-2-4---------------------0--2--2--0--0--------------------
B-9-9--7-5-3-5---------------------2--3--3--2--0----2---------------
G---------------------------------------------------2-----------2---
D---------------2--2--0-----------------------------2---4--2--------
A---------------2--------2--0---------------------------------4-----
E---------------0---------------4-----------------------------------
               (Se repite los versos desde: Quien me la robo.....
            A
dejenme llorar
F#7     F7    E7
dejenme arrarcarme
              A  F#7 F7 E7(solamente en esta parte:las notas F#7 y F7
mi mejor carino            se toca un bajo y doble rasgueo.
                           luego caes a E7 y sigues tocando normal.
             A
mi mejor cariño   G------------------------1-2-2222222244444444--A
                  D--7-6-4-2-0--------2-4------------------------
                  A------------4-2-0------------ ----------------
    A   E7 A7  D  F#7  F7
E---5---x--5---x---x---x----
B---5---5--8---x---7---6----
G---6---7--6---7---9---8----
D---7---6--5---4---8---6----
A---7---7--7---5---9---8----
E---5---7--5---5------------
Suggest correction
Give kudos to tab author, rate the tab!
1 2 3 4 5
comments
print report bad tab
2 comments total.
0 reply
calarate101 10 Mar 24, 2016 08:44 AM

0 reply
calarate101 10 Mar 24, 2016 09:21 AM, edited at 01:52 pm

This tab doesn't sound like the tab used in the song and I can't play this tab like the way the song was, but it is still great!

guest
You may want to rate the tab now too:
select rating
Wanna post a correction for this tab? Suggest correction