Oops, an error
Loading. Please wait.

Sabor De Engaño Tab

115 views 3 this week
no commentswrite comment
1 2 3 4 5
3 more votes to show rating
add to favorites
launch autoscroll
font size
0
reset
how to read this tab
guitar tuner
×
Best way to learn
"Sabor De EngaÑo"
Autoscroll
slow
fast
+/-
esc
set tempo
stop
e|-12-11-9--7-7-7--7-7--4-5-7--5-5-5--5-5--2-4-5--4--|
B|-14-12-10-9-9-9--9-9--5-7-9--7-7-7--7-7--4-5-7--5--|
G|----------------------------------------------------|
D|----------------------------------------------------|
A|----------------------------------------------------|
E|----------------------------------------------------|

e|--------------------|
B|-5-4----------------|
G|-6-4--6-4-----------|
D|----------7-6-4-----|
A|----------------7---|
E|--------------------|

            E
sabor de engaño, tienen tus ojos
            B7
cuando me miras
            F#m                B7
sabor de engaño siento en tus labios
           E
cuando me besas.

no eres sincera cuando me dices
             B7
que aun me quieres
              F#m               B7
que en tus palabras se nota el filo
         E
de la traición.

es imposible seguir fingiendo
           B7
de esta manera

e|--5-7-7-7--9--11---|
B|--7-9-9-9--10-12---|
G|-------------------|
           F#m               B7
yo te agradezco con toda el alma
            E
tu noble empeño.
                        E7
y te prometo sentirme fuerte
            A   C#m   F#m
cuando me digas
           E                 B7
que no me amas, que es para otro
        E
tu corazón.
Suggest correction
Give kudos to tab author, rate the tab!
1 2 3 4 5
comments
print report bad tab
guest
You may want to rate the tab now too:
select rating
Wanna post a correction for this tab? Suggest correction