Oops, an error
Loading. Please wait.

Esta Luz Nunca Se Apagará Bass Tab

version 1
version 1

Whole song

Interactive

77 views 1 this week
no commentswrite comment
1 2 3 4 5
3 more votes to show rating
add to favorites
launch autoscroll
font size
0
reset
guitar tuner
×
Best way to learn
"Esta Luz Nunca Se Apagará"
Autoscroll
slow
fast
+/-
esc
set tempo
stop
El bajo para esta cancion es el mismo que toca
el grupo The Smiths pero es mas facil tocar esto

Intro
G------------------------------
D------------------------------
A--5----1-1---3--3-------------
E------------------------------

Verso
G--------------------------------------------
D--------------------------------------------
A--5--5-5-5-5-----5--5-5-5-5--1--1-1-1-------
E--------------------------------------------

G-------------------------
D-----3-3-----------------
A----------3-3-3----------
E-------------------------

Coro
G----------------------------
D----3-3-3-3-3---------------
A----------------3-3-3-3-3---
E----------------------------

G-----------------------------
D-----------------------------
A---5-5-5-5-5---1-1-1-1-1-----
E-----------------------------

Intro
Verso
Intro
Coro
Verso
Intro
Coro
Verso
Intro
Suggest correction
Give kudos to tab author, rate the tab!
1 2 3 4 5
comments
print report bad tab
guest
You may want to rate the tab now too:
select rating
Wanna post a correction for this tab? Suggest correction