Oops, an error
Loading. Please wait.

Si Mi Celda Eres Tú Tab

22 views 3 this week
no commentswrite comment
1 2 3 4 5
3 more votes to show rating
add to favorites
launch autoscroll
font size
0
reset
how to read this tab
guitar tuner
×
Best way to learn
"Si Mi Celda Eres Tú"
Autoscroll
slow
fast
+/-
esc
set tempo
stop
Em:022000  (Mim)
D: 000232  (Re)
Am:002210  (Lam)
C: 032010  (Do)
G: 320003  (Sol)


[intro]
Em  D  Am  C

       Em                             D
E-||--(0)----0----0-------0----0-----(2)----------------------------
B-||--(0)--0----0---0---0----0---0---(3)----3----3-------3----3-----
G-||--(0)----------------------------(2)--2----2---2---2----2---2---
D-||--(2)----------------------------(0)----------------------------
A-||--(2)----------------------------(0)----------------------------
E-||--(0)----------------------------(0)----------------------------

       Am                             C
E-||--(0)----------------------------(0)----------------------------
B-||--(1)----1----1-------1----1-----(1)----1----1-------1----1-----
G-||--(2)--2----2---2---2----2----2--(0)--0----0---0---0----0---0---
D-||--(2)----------------------------(2)----------------------------
A-||--(0)----------------------------(3)----------------------------
E-||--(0)----------------------------(0)----------------------------


Em            D
   Incesante busqueda
Am                       C
   De una aguja en un pajar
Em                 D
   Otra noche en blanco mas
 Am                 C
Rey, reina de mi aliento


[punteo sobre estribillo]
       G                              D
E-||--(3)----3---2---3---2---2/3-----(2)----3---2---3---2---2/3-----
B-||--(0)----------------------------(3)----------------------------
G-||--(0)--0---0---0---0-------------(2)----------------------------
D-||--(0)----------------------------(0)--0---0---0---0-------------
A-||--(2)----------------------------(0)----------------------------
E-||--(3)----------------------------(0)----------------------------

       Em                             C
E-||--(0)----3---2---3---2---2/3-----(0)----3---2---3---2---2/3-----
B-||--(0)----------------------------(1)----------------------------
G-||--(0)----------------------------(0)----------------------------
D-||--(2)--2---2---2---2-------------(2)----------------------------
A-||--(2)----------------------------(3)--3---3---3---3-------------
E-||--(0)----------------------------(0)----------------------------

     G
Tu duermes con mi libertad,
   D
Y con quien duermo yo?
     Em
Me siento como un huerfano
     C
Que vive a tu merced
     G                       D
Solamente se obedecer a tu arisco latigo
   Em                   C
Y si mi celda eres tu, yo la ocupare


Em      D            Am          C
            Na-a-a-a-a


Em               D
   Cargas de profundidad
           Am             C
De tu corazon, de tu corazon, al mio, al mio
 Em              D
Y es    como volverse a ahogar,
                Am           C
Volver a naufragar   en una lagrima


     G
Tu duermes con mi libertad,
   D
Y con quien duermo yo?
     Em
Me siento como un huerfano
     C
Que vive a tu merced
     G                       D
Solamente se obedecer a tu arisco latigo
   Em                   C
Y si mi celda eres tu, yo la ocupare


Em      D            Am          C
            Na-a-a-a-a
Em      D            Am          C
            Na-a-a-a-a


     G
Tu duermes con mi libertad,
   D
Y con quien duermo yo?
     Em
Me siento como un huerfano
     C
Que vive a tu merced
     G                       D
Solamente se obedecer a tu arisco latigo
   Em                   C              Em
Y si mi celda eres tu, yo la ocupare


###--------------------------------###
### Tablatura de:  Enrique Moraño  ###
###  Sevilla [España]  para ATAME  ###
### emorano@   MAR-2003 ###
###--------------------------------###
Suggest correction
Give kudos to tab author, rate the tab!
1 2 3 4 5
comments
print report bad tab
guest
You may want to rate the tab now too:
select rating
Wanna post a correction for this tab? Suggest correction