Oops, an error
Loading. Please wait.

A Dónde Iremos? Tab

38 views 1 this week
no commentswrite comment
1 2 3 4 5
3 more votes to show rating
add to favorites
×
Save as Personal and add changes to this tab that will be seen only by you. Learn more ›
×
You can save this tab as Personal to edit and correct it or add notes. All changes will be seen only by you. Learn more »
save as personal
new!
launch autoscroll
font size
0
reset
how to read this tab
guitar tuner
Autoscroll
slow
fast
+/-
esc
set tempo
stop
Bueno aqui les dejo la tablatura de esta alabanza y espero
que les sea de mucha ayuda DIOS LOS BENDIGA.

En esta alabanza entra primero la bateria y luego viene esta introduccion

intro:


e)||-------------------------------------------------|
B)||-------------------------------------------------|
G)||-----------------2-------------------------------|
D)||-----------2--4----0--0-0-2h4--2-2--2------------|
A)||--0--2--4-----------------------------4--2--4----|
E)||-------------------------------------------------|


e)||----------------------------------------------------|
B)||----------------------------------------------------|
G)||-----------------2-2-1--1h2p1-----------------------|
D)||-----------2--4----------------2--2/4--4-2----------|
A)||--0--0-2h4----------------------------------0--2h4--|
E)||----------------------------------------------------|


                                                      A
e)||---------------------0----------------------------0-----|
B)||---------------------------3------2---------------2-----|
G)||---------------2--1-----------------------4-------2-----|
D)||----------2--4----------4------2------------------2-----|
A)||----0-2h4-----------------------------4-----------0-----|
E)||--------------------------------------------------x-----|


Este adorno lo hace antes de entrar al coro:

                                                A
e)||-------------0------------------------------0-----|
B)||-------------------3-------2----------------2-----|
G)||------2--1--------------------------4-------2-----|
D)||---4-----------4-------2--------------------2-----|
A)||---------------------------------4----------0-----|
E)||--------------------------------------------x-----|

DIOS LOS BENDIGA saludos a la iglesia principe de paz.
Suggest correction
Give kudos to tab author, rate the tab!
1 2 3 4 5
comments
print report bad tab
guest
Wanna post a correction for this tab? Suggest correction