Oops, an error
Loading. Please wait.

Ya Lo Sabía Tab

by Miranda
69 views 1 this week
no commentswrite comment
1 2 3 4 5
3 more votes to show rating
add to favorites
launch autoscroll
font size
0
reset
how to read this tab
guitar tuner
Autoscroll
slow
fast
+/-
esc
set tempo
stop
ESTA TABLATURA ES EL PUNTEO DE LO QUE VENDRÍA SIENDO LA VOZ:


ESTROFA 1:
Que buen comienzo tú y yo
Que sorpresivo y que prometedor
Tu amor tan veloz, me atrapó
Si estamos bien o estamos mal
Todo es perfecto y algo fallará
No funcionará. Ya lo sé
e|----------------------------------------------------------|
B|-3-3-1-4-3-1-------3-3-1-4-3-1---1-3-4---4-3------------1-|
G|-------------3-----------------3-------------0-2-3--2-3---|
D|---------------3------------------------------------------|
A|----------------------------------------------------------|
E|----------------------------------------------------------|
(BIS)

Pero igual
Está creciendo y no lo puedo parar
e|-1---------------------------1-|
B|---3-----3-3-3-3-1-3-1-3-1-3---|
G|-----3-------------------------|
D|-------------------------------|
A|-------------------------------|
E|-------------------------------|


ESTRIBILLO 1:
Ya lo sabía
Te has convertido en parte de mi vida
Brindándome todo lo que quería
e|-6-6-6-6------6-6-6-------6-6-6-----6-6-6-6---------------|
B|---------6--6-------6-6-6--------8----------8-8-8-8-6-6---|
G|--------------------------------------------------------8-|

Ya lo sabía
Que enamorarme no me convenía
e|----------------------6-6-6-8-8-8-|
B|-8-8-6-6----8-8-6-6-6-------------|
G|---------8------------------------|

Ya lo sabía
De alguna forma me lo suponía
Había algo que me lo decía
e|-6-6-6-6----6-6-6-6-------6-6-6----6-6-6-6---------------|
B|---------6----------6-6-6-------8----------8-8-8-8-6-6---|
G|-------------------------------------------------------8-|

Pero nunca lo escuché
e|---------------|
B|-8-6-----------|
G|-----8-7-5-----|
D|-----------7-8-|

**********************************************************************

ESTROFA 2:
Solía estar bajo control
Pero perdí la mente por amor
Tenme compasión
Ven a mí
e|----------------------------------------------------------|
B|-3-3-1-4-3-1-------3-3-1-4-3-1---1-3-4---4-3------------1-|
G|-------------3-----------------3-------------0-2-3--2-3---|
D|---------------3------------------------------------------|
A|----------------------------------------------------------|
E|----------------------------------------------------------|

Vengo aquí
Tantas palabras que no quieren salir
e|-1---------------------------1-|
B|---3-----3-3-3-3-1-3-1-3-1-3---|
G|-----3-------------------------|
D|-------------------------------|
A|-------------------------------|
E|-------------------------------|


-ESTRIBILLO 1-


INTERMEDIO:
Ya lo sabía y me mentía para continuar
Con este amor esquizofrénico y particular,
Ya lo sabía, no hice nada, era de esperar,
Que estallaría frente a nuestros ojos el final
e|--------------------------------------------------|
B|----------------------6x14----8x7-6-6-6-6-6,8,10--|
G|-7x14----7x12--8-7--------------------------------|
D|--------------------------------------------------|


ESTRIBILLO 2:
...Sabía
Te has convertido en parte de mi vida
Brindándome todo lo que quería
e|---6------6-6-6-------6-6-6-----6-6-6-6---------------|
B|-6---6--6-------6-6-6--------8----------8-8-8-8-6-6---|
G|----------------------------------------------------8-|

Ya lo sabía
Que enamorarme no me convenía
e|----------------------6-6-6-8-8-8-|
B|-8-8-6-6----8-8-6-6-6-------------|
G|---------8------------------------|

Ya lo sabía
De alguna forma me lo suponía
Había algo que me lo decía
e|-8-8-8-8----8-8-8-8-------8-8-8-----8-8-8-8--------------------|
B|---------8----------8-8-8-------10----------10-10-10-10-8-8----|
G|------------------------------------------------------------10-|

Pero nunca lo escuché
e|------------------|
B|-10-8-------------|
G|------10-9-7------|
D|-------------9-10-|
Suggest correction
Give kudos to tab author, rate the tab!
1 2 3 4 5
comments
print report bad tab
guest
You may want to rate the tab now too:
select rating
Wanna post a correction for this tab? Suggest correction