Oops, an error
Loading. Please wait.

Herida Bass Tab

36 views 1 this week
no commentswrite comment
1 2 3 4 5
3 more votes to show rating
add to favorites
launch autoscroll
font size
0
reset
guitar tuner
Autoscroll
slow
fast
+/-
esc
set tempo
stop
Help us to improve Ultimate-Guitar.com Take our survey!
×
Esta cancion se la dedico
a Clau la amigaza

pues dice que esta cancion le encanta
ps a mi tambien

Es para bajo de 5 cuerdas
pero esta una octava mas abajo
solo en las partes donde mi bajo de 4 no llega
pero en lo demas ta correcto
espero les agrade
E|------|----|
A|--8-5-|-8--|
D|------|----|
G|------|----|

Yo no se que hacer
E|----|-|-3---|-3-3--|----------|
A|--5-|-|---3-|----3-|-8-5-7-0--|
D|----|-|-----|------|----------|
G|----|-|-----|------|----------|

Esta situacion
E|-------|------|-3-3--|-3-3--|-------------|
A|--5-55-|-5-55-|----3-|----3-|-8-85-7-/12--|
D|-------|------|------|------|-------------|
G|-------|------|------|------|-------------|

Y asi
E|--------|-3-33-1-0-|-----|----------|-----|-0-|-3-5-|------|-5-1--|
A|-555555-|----------|-1-3-|-8-88-7-5-|-3-1-|---|-----|-5-55-|------|
D|--------|----------|-----|----------|-----|---|-----|------|------|
G|--------|----------|-----|----------|-----|---|-----|------|------|

Y asi
E|---3-33-1-0-|-----|----------|-----|-0-|-3-5-|---|-1-3-|-5--|
A|-5----------|-1-3-|-8-88-7-5-|-3-1-|---|-----|-5-|-----|----|
D|------------|-----|----------|-----|---|-----|---|-----|----|
G|------------|-----|----------|-----|---|-----|---|-----|----|

cuanto te amo
E|----|-----|----------|----|
A|--5-|-8-5-|----------|-8--|
D|----|-----|--------0-|----|
G|----|-----|-9h10h9---|----|

Debes entender
E|-------|------|-3-3--|-3-3--|--------0---|
A|--5-55-|-5-55-|----3-|----3-|-8-85-7--0--|
D|-------|------|------|------|------------|
G|-------|------|------|------|------------|

Nunca olvidare
E|-------|------|--3-3--|-3-3--|-------------|
A|--5-55-|-5-55-|-5---3-|----3-|-8-85-7-/12--|
D|-------|------|-------|------|-------------|
G|-------|------|-------|------|-------------|

Y asi
E|--------|-3-33-1-0-|-----|----------|-----|-0-|-3-5-|------|-5-1--|
A|-555555-|----------|-1-3-|-8-88-7-5-|-3-1-|---|-----|-5-55-|------|
D|--------|----------|-----|----------|-----|---|-----|------|------|
G|--------|----------|-----|----------|-----|---|-----|------|------|

Y asi
E|---3-33-1-0-|-----|----------|-----|-0-|-3-5-|---|-1-3-|-5-|------|
A|-5----------|-1-3-|-8-88-7-5-|-3-1-|---|-----|-5-|-----|---|------|
D|------------|-----|----------|-----|---|-----|---|-----|---|-5/7--|
G|------------|-----|----------|-----|---|-----|---|-----|---|------|

Cuanto te amo
E|---------|-----|----------|-----|----|-----|---------------|
A|---------|-8-5-|----------|-8-5-|--5-|-8-5-|---------------|
D|-------0-|-----|--------0-|-----|-7--|-----|-------------0-|
G|--7/12---|-----|-9h10h9---|-----|----|-----|-9h10-9h10-7---|

E|------|----------|-------|----|-----|------|
A|--8-5-|----------|-588-5-|--5-|-8-5-|-8-5--|
D|------|--------0-|-------|-7--|-----|------|
G|------|-9h10h9---|-------|----|-----|------|

atte. miauricio
Suggest correction
Give kudos to tab author, rate the tab!
1 2 3 4 5
comments
print report bad tab
guest
You may want to rate the tab now too:
select rating
Wanna post a correction for this tab? Suggest correction