Oops, an error
Loading. Please wait.

Huele A Peligro Tab

45 views 1 this week
no commentswrite comment
1 2 3 4 5
3 more votes to show rating
add to favorites
launch autoscroll
font size
0
reset
how to read this tab
guitar tuner
Autoscroll
slow
fast
+/-
esc
set tempo
stop
ADVERTENCIA! La letra  "e" que aparece
arriba de las tablaturas a la par de
la letra "Q" "S" "H" y
toda esa fila de letras
NO implica el acorde E sino Eight Note (Corchea).
Los acordes estan arriba de los valores de tiempo.
Al igual La "s" de slide solo se ve en la tablatura,
la "S" de Semi Corchea esta a la par
de las letras "Q" "e" "H".


Intro:

     Gm                           Cm
     Q.       E  E  E  E  E       Q.     E  E  E  E  E
E||--------------------------|--------------------------|
B||---------1s3--------------|--------------------------|
G||--3-----------5--3--2-----|--3s5------5--3-----------|
D||-----------------------5--|-----------------7--5--3--|
A||--------------------------|--------------------------|
E||--------------------------|--------------------------|


    Eb           F7      Bb
    H.           Q       Q.     E  E  E  E  E
----------------------|------------------------|
----------------------|--3------6--4--3--------|
----------------------|------------------5--3--|
--3s5------------7----|------------------------|
----------------------|------------------------|
----------------------|------------------------|


  F/A       D7/F#             Gm       F
  Q.     e  e     e  e  e     H        S S e  e  e
---------------------------|------------------------|
---------6--4-----3--------|------------------------|
--5------------------5--2--|--3--------2-3-5--3-----|
---------------------------|---------------------3--|
---------------------------|------------------------|
---------------------------|------------------------|


  Eb                  F
  W                   H.             Q
-------------------|----------------------|
-------------------|----------------------|
-------------------|----------------------|
--5----------------|--3------------0h1----|
-------------------|----------------------|
-------------------|----------------------|


  Gm
  W
-------------------||
-------------------||
-------------------||
--0----------------||
-------------------||
-------------------||


      Gm                  Gm/F
Ese abrazo, que nos damos los dos
            Eb6add9   Bb/D
cuando nos saludamos
    Cm                   F7
Ese beso, que se escapa de mí
            Bb        Fm7  Bb7
cuando nos encontramos
        Eb       F/Eb
Huele a peligro
     Dm       Gsus4 Gm
estar contigo
         Cm
Existe un algo entre los dos
 F7
esa manera de sentir
Bb                     Am7b5   D7
   que no es de amigos

     Gm                  Gm/F
Ese rato cuando hablamos los dos
             Eb6add9   Bb/D
esquivando miradas
     Cm                      F7
que pensamos, que la gente está ciega
          Bb           Fm7  Bb7
que al fin la engañamos
        Eb       F/Eb
Huele a peligro
     Dm       Gsus4 Gm
estar contigo
         Cm
Existe un algo entre los dos,
 F7
esa manera de sentir,
Bb                     Am7b5   D7
   que no es de amigos

         G
Huele a peligro
        D/F#                       Em
el sólo hecho de acercarme a conversarte
           D                              C
con el pretexto de que de algo quiero hablarte.
        C#m7b5
Un solo paso en falso
             Dsus4        D
y nada ya nos puede deterner.
         G
Huele a peligro
       D/F#                      Em
ese deseo que se esconde en la mirada.
            D                       C
El fuego atroz de una pasión desesperada
           C#m7b5
esa inquietud alborotada
        Dsus4       D
con el hambre retrasada.


           G
Huele A peligro.            D/F#
  H.            E.     S    H        E   S  S E    S S
-------------------------|--------------14b-L-Lb-------|
---------------15br---15-|--L--------L------------15---|
-------------------------|-----------------------------|
-------------------------|-----------------------------|
-------------------------|-----------------------------|
-------------------------|-----------------------------|


   Em
                          |---3---|
   H          S   S  S S  E   E   E
--------------------------------------|
--15b--------15b-12-------------------|
--------------------14---12--14--14b--|
--------------------------------------|
--------------------------------------|
--------------------------------------|


     D                                      C                 C5 B5
     Q.   S  S   S   S  S  S  S   S  e      H       S  S  e   e  e
------------14b--Lb---------------------|----------------------------|
--------------------15------------------|----------------15b--L--Lb--|
-12h14----L------------14-11b-Lb--------|----------11-12-------------|
---------------------------------12-----|--14------------------------|
------------------------------------12--|----------------------------|
----------------------------------------|----------------------------|


   A5            A5 G5     F5
   H.            E  E      S  S  S  S  e   S  S  S  S  e  Q
-----------------------|--12-13-12--------12-13-12-------------|
--15b------------L--L--|-----------13--------------13----------|
-----------------------|--------------14--------------12--L----|
-----------------------|---------------------------------------|
-----------------------|---------------------------------------|
-----------------------|---------------------------------------|


                                    Huele a peligro
  D                                            G
  E   S  S  S  S  S  S  S  S  S  S  S  E.      W
--------------------------------14-15-17---|--20b----------------||
--------------------------15-17------------|---------------------||
-----------------14-16-17------------------|---------------------||
--------14-16-17---------------------------|---------------------||
-----17------------------------------------|---------------------||
-------------------------------------------|---------------------||

        D/F#                       Em
el sólo hecho de acercarme a conversarte
           D                              C
con el pretexto de que de algo quiero hablarte.
        C#m7b5
Un solo paso en falso
             Dsus4        D
y nada ya nos puede deterner.
         G
Huele a peligro
       D/F#                      Em
ese deseo que se esconde en la mirada.
            D                       C
El fuego atroz de una pasión desesperada
           C#m7b5
esa inquietud alborotada
        Dsus4       D
con el hambre retrasada.
         G          D/F#
Huele a peligroooooooooo.
Em                    D
  Uuuhh uuuhh uuuuuhh uuuuhh

C - C#m7b5 - Dsus4 - D - Dsus2 - D


  G                     D/F#      D#dim             Em     D
  Q.   E  E  E  E  E    Q.     E  E     E  E  E     H      H
----------------------|--------------------------|------------------|
----------------------|--------------------------|------------------|
--4----7--5--4--------|--------7--5-----4--------|------------------|
----------------7--5--|-7------------------7--4--|--5------4--------|
----------------------|--------------------------|------------------|
----------------------|--------------------------|------------------|


  C                   Ebmaj7             G
  W                   W                  W
-------------------|-------------------|---------||
-------------------|--3----------------|---------||
-------------------|--3----------------|---------||
-------------------|--5----------------|---------||
--7----------------|--6----------------|---------||
-------------------|-------------------|---------||

Notacion
---------------
W - whole - Redonda
H - half - Blanca
Q - quarter - Negra
E - 8th - Corchea
S - 16th - Semi Corchea
T - 32nd - Fusa
X - 64th - Semi Fusa
. - note dotted - Puntillo
|-n-|  - n-tuplets - Tresillo, Seisillo.
La N marca que es, si  dice |--3--| sera tresillo.
b - bend - Estirar
br - bendRelease - Estirar, dejar de estirar
s - Slide
h - hammer on
Suggest correction
Give kudos to tab author, rate the tab!
1 2 3 4 5
comments
print report bad tab
guest
You may want to rate the tab now too:
select rating
Wanna post a correction for this tab? Suggest correction