Oops, an error
Loading. Please wait.

Si Yo Me Vuelvo A Enamorar Tab

23 views 1 this week
no commentswrite comment
1 2 3 4 5
3 more votes to show rating
add to favorites
×
Save as Personal and add changes to this tab that will be seen only by you. Learn more ›
×
You can save this tab as Personal to edit and correct it or add notes. All changes will be seen only by you. Learn more »
save as personal
new!
launch autoscroll
font size
0
reset
how to read this tab
guitar tuner
Autoscroll
slow
fast
+/-
esc
set tempo
stop
Este es el punteo del intro de la cancion...super facil
y nada de complicado....ojala sirva de algo...ai va:

E|---------------------------------------------------
B|-----------8/9-99--10--7--------7----10--99-7/5-5--
G|----6--8-9------------------8-9---8----------------
D|---------------------------------------------------
A|---------------------------------------------------
E|---------------------------------------------------

E|---------------------------------------------8/9---
B|-----------------------------------------8-9-------
G|-----6--8-8/9-99---9-8-8-8h9--88-66--8-9-----------
D|---------------------------------------------------
A|---------------------------------------------------
E|---------------------------------------------------

Eso es todo....ojala la disfruten...cualquier duda a mi
mail
(sgomez_87@ saludo para mi amor...
TE KIERO MUCHO VIVITA!!!
CHILE
Suggest correction
Give kudos to tab author, rate the tab!
1 2 3 4 5
comments
print report bad tab
guest
Wanna post a correction for this tab? Suggest correction