Oops, an error
Loading. Please wait.

Sonido Amazónico Tab

608 views 9 this week
no commentswrite comment
1 2 3 4 5
1 last vote to show rating
add to favorites
launch autoscroll
font size
0
reset
how to read this tab
guitar tuner
Autoscroll
slow
fast
+/-
esc
set tempo
stop
Help us to improve Ultimate-Guitar.com Take our survey!
×
Hola, soy Luis Anto, conocido en Youtube como Lualanmi jejeje

(ya ya ya JAJAJA, te amo  lo mejor!!!!!!)

Bueno, me animé ahorita a subir esta tabs, ya que
al subir una tabs de "Los Mirlos" me di cuenta
que esta canción está pedida así que, aquí les dejo
la tabs(especialmente al que la pidió),
me tiré como 2 horas en esto(un poco más),
bueno, la saqué a oido y sin guitarra,
 así que discúlpenme si fallo en los hammer.
No creo que me falle el oido sin guitarra,
pero en caso que me haya equivocado
pido disculpas, pero está bien la tabs, así que confiaos,
solo en el primer compás del SOLO con Wha-Wha tengo dudas XD


Empecemos....
_____________________________
INTRO
Usan Efecto Wha-Wha XD

-.- obvio


1|------------------------|
2|------------------------|
3|------------5-5-5-------|
4|----5-------5-5-5---5---|(Repiten "n" veces)
5|----5---5---5-5-5---3---|(...y van variando un poco)
6|--3---3---3-------3-----|(...es q m dio flojera XD)


1|------4-3h4p3-------4-------|------------------------|
2|--4-5-----------5-4---------|--------4h5p4-------4---|
3|----------------------------|----4-6-------6---4-----|
4|--------(5h6p5)-------------|----------------------6-|
5|----------------------------|------------------------|
6|----------------------(3)(3)|------------------------|


Igual al anterior, solo cambien el hammer:

1|------4-3h4p3-------4-------|------------------------|
2|--4-5-----------5-4---------|--------4h7p4-------4---|
3|----------------------------|----4-6-------6---4-----|
4|--------(5h6p5)-------------|----------------------6-|
5|----------------------------|------------------------|
6|----------------------(3)(3)|------------------------|


1|-----------------|----------------|
2|--------------4--|----------------|
3|----4-6-7-6-4----|---4-6-4--------|
4|--6--------------|-6-------6-4-6--|
5|-----------------|----------------|
6|-----------------|----------------|


1|-----------------|--------------------|
2|--------------4--|--------------------|
3|----4-6-7-6-4----|---4-6-4h6p4--------|
4|--6--------------|-6-----------6-4-6--|
5|-----------------|--------------------|
6|-----------------|--------------------|


Aquí se repite lo mismo,
sino que está vez le dan una octava más alta
(más finito como decía yo cuando era principiante XD jaja),
Ahhh!!...y les doy como dato esto:
...de que siempre en la cumbia(otros géneros y estilos también)
 de este tipo se da eso,
de tocar una octava más alta :)
así que lo que viene es lo mismo de lo anterior,
sino que esta vez más "finito" XD


1|--------16-15-------/16-|--------11-------11----|
2|-/16-17-------17-16-----|-/12-14----14-12-------|
3|------------------------|--------------------13-|
4|------------------------|-----------------------|
5|------------------------|-----------------------|
6|------------------------|-----------------------|


1|--------16-15-------16-|--------11h13p11-------11----|
2|-/16-17-------17-16----|--12-14----------14-12-------|
3|-----------------------|--------------------------13-|
4|-----------------------|-----------------------------|
5|-----------------------|-----------------------------|
6|-----------------------|-----------------------------|


1|--------------------11-|----------------------------|
2|-----12-14-15-14-12----|----12-14-12----------------|
3|--13-------------------|-13----------13-11-13-------|
4|-----------------------|----------------------------|
5|-----------------------|----------------------------|
6|-----------------------|----------------------------|

1|--------------------11-|----------------------------|
2|-----12-14-15-14-12----|----12-14-12----------------|
3|--13-------------------|-13----------13-11-13-------|
4|-----------------------|----------------------------|
5|-----------------------|----------------------------|
6|-----------------------|----------------------------|


1|---------------------------------------------------|
2|----11-12-11---------------------------------------|
3|-13----------13-12-(12h13p12p13p12p13p12...)ecooo--|
4|---------------------------------------------------|
5|---------------------------------------------------|
6|---------------------------------------------------|


1|------------------|
2|------9-8h9p8-----|
3|--8-9---------9-8-|
4|------------------|
5|------------------|
6|------------------|


1|---------------------------------------------------|
2|----11-12-11-----------------------------el-mismo--|
3|-13----------13-12-(12h13p12p13p12p13p12...)ecooo--|
4|---------------------------------------------------|
5|---------------------------------------------------|
6|---------------------------------------------------|


1|------------------|
2|------9-8h9p8-----|
3|--8-9---------9-8-|
4|------------------|
5|------------------|
6|------------------|


1|-----------------|----------------|
2|--------------4--|----------------|
3|----4-6-7-6-4----|---4-6-4--------|
4|--6--------------|-6-------6-4-6--|
5|-----------------|----------------|
6|-----------------|----------------|

                                             prueben con 4 ó 3,
                                             es q no tengo guitarra
                                             ahorita para comprobar
                                         >---->v
1|-----------------|-------------------|-----4-4-4-4-4-...--|
2|--------------4--|-------------------|-4-5----------------|
3|----4-6-7-6-4----|---4-6-4h6p4-------|--------------------|
4|--6--------------|-6-----------6-4-6-|--------------------|
5|-----------------|-------------------|--------------------|
6|-----------------|-------------------|--------------------|


...aki, entra lo mejor!!
Sii, la otra guitarra con Efecto Wha-Wha
esto es cuando se está tocando el trate
que les acabo de decir(4 ó 3)

Como Les repito, la he sacado sin guitarra,
así que ustedes con su guitarra la podrán sacar mejor, pues
se trata de efecto wha-wha, al menos les doy una
aproximación del primer compás, lo demás está bien,
de a oído nada más chicos, anímense!!
:


Prueben con esto:
1|--------------11h13p11----------------|
2|--12h14-12h14----------12h14-14...----|
3|--------------------------------------|
4|--------------------------------------|
5|--------------------------------------|
6|--------------------------------------|


lo que viene aki si está bien, es que en el primer compás
de la segunda guitarra lleva efecto wha-wha
y como no teng ahorita guitarra...

esta si está más fácil, sigamos:
es la continuación del compás anterior, nada de pausas
solo hice este comentario, pero no es pausa, es
seguido al compás anterior:
1|------------|---------------------|
2|...10-10-8--|--12h14--10h12p10-8--|
3|------------|---------------------|
4|------------|---------------------|
5|------------|---------------------|
6|------------|---------------------|

1|-------------------------|
2|--12h14-14---10h12p10-8--|
3|-------------------------|
4|-------------------------|
5|-------------------------|
6|-------------------------|


1|--------------------15--15/13--|
2|-8/10--10/12--12/15------------|
3|-------------------------------|
4|-------------------------------|
5|-------------------------------|
6|-------------------------------|


1|--11h13p11-------------------|----------------------|--------------|
2|-----------14---12h14p12-10--|----10-12-14-15/(14)--|--10h12p10-8--|
3|-----------------------------|--13------------------|--------------|
4|-----------------------------|----------------------|--------------|
5|-----------------------------|----------------------|--------------|
6|-----------------------------|----------------------|--------------|


Bueno, lo que sigue ya se repiteee.


Leyenda:

/: Slide
h,p: Hammer
(): Nota fantasma(si gustan la tocan o no)


*NOTA: Si necesitan una tabs en especial, solamente pídanmelo en Youtube.
Saludos
Lualanmi


Saludos Elver Cruz y David Calle, Jhon More, Manuel Carhuapoma
 mis grandes amigooos, allá en CHULUCANAS xD
mi tierra natál :P jeje.
Suggest correction
Give kudos to tab author, rate the tab!
1 2 3 4 5
comments
print report bad tab
guest
You may want to rate the tab now too:
select rating
Wanna post a correction for this tab? Suggest correction