Oops, an error
Loading. Please wait.

Aférrate Tab

version 2
version 2

Whole song

by Miro
25 views 1 this week
no commentswrite comment
1 2 3 4 5
3 more votes to show rating
add to favorites
launch autoscroll
font size
0
reset
how to read this tab
guitar tuner
Autoscroll
slow
fast
+/-
esc
set tempo
stop
Help us to improve Ultimate-Guitar.com Take our survey!
×
INTRO
1|---------------------------------|
2|--5-5-5-5-5-5-5-5-8-8-8-8-8-8-8-8|
3|-5-5-5-5-5-5-5-5-5-5-5-5-7-7-7-7-| X2
4|---------------------------------|
5|---------------------------------|
6|---------------------------------|

F             G
Aprendes a vivir,
     F
poniendo en pausa el tiempo
        G
en tus ojos.
F                              G
Hay un mundo afuera que te espera,
F         G
solo para ti.

F                          C
Aférrate a la vida no la sueltes,
     E             Am - B5 - C5 - E
que todavia no termina
F                            C
Aférrate a la vida con los dientes...
  E            E
y no te dejes caer...

1|-----------------|
2|-555555555555555-|
3|-555555555555555-|
4|-----------------|
5|-----------------|
6|-----------------|

F                      G
La gente vaga como fantasmas,
    F                 G
tu luz los hace respirar,
    F                           G
si sientes que la vida se te escapa
     F
y en un instante
          G
más te olvidarán

F                          C
Aférrate a la vida no la sueltes,
     E             Am - B5 - C5 - E
que todavia no termina
F                            C
Aférrate a la vida con los dientes...
  E            E
y no te dejes caer...

Am G F E X2
1|---------------------------------------------------------------------------
2|----------------------------88888------------------------------------------
3|-555555555555555-7777777777777777-5555555555555-444444444-22222222-44444444
4|---------------------------------------------------------------------------
5|---------------------------------------------------------------------------
6|---------------------------------------------------------------------------


1|---------------------------------------------------------
2|----------------------------88888------------------------
3|-555555555555555-7777777777777777-5555555555555-444444444
4|---------------------------------------------------------
5|---------------------------------------------------------
6|--------------------------------------------------------

F                          C
Aférrate a la vida no la sueltes,
     E             Am - B5 - C5 - E
que todavia no termina
F                            C
Aférrate a la vida con los dientes...
  E            E
y no te dejes caer...

F                          C
Aférrate a la vida no la sueltes,
     E             Am - B5 - C5 - E
que todavia no termina
F                            C
Aférrate a la vida con los dientes...
  E            E
y no te dejes caer...

    F                G
1|---------------8-7-8--7-8-7--8-7-|
2|-10-8-10--8-10-------------------|
3|---------------------------------|
4|---------------------------------|
5|---------------------------------|
6|---------------------------------|

   F                 G
1|---------------8-7-8--10-12--12-12-12~-|
2|-10-8-10--8-10-------------------------|
3|---------------------------------------|
4|---------------------------------------|
5|---------------------------------------|
6|---------------------------------------|

   F                 G
1|---------------8-7-8--7-8-7--8-7-|
2|-10-8-10--8-10-------------------|
3|---------------------------------|
4|---------------------------------|
5|---------------------------------|
6|---------------------------------|

   F                 G                   F...
1|---------------8-7-8--10-12--12-12-12--8~~-|
2|-10-8-10--8-10-----------------------------|
3|-------------------------------------------|
4|-------------------------------------------|
5|-------------------------------------------|
6|-------------------------------------------|
Suggest correction
Give kudos to tab author, rate the tab!
1 2 3 4 5
comments
print report bad tab
guest
You may want to rate the tab now too:
select rating
Wanna post a correction for this tab? Suggest correction