Oops, an error
Loading. Please wait.

Aférrate Bass Tab

142 views 1 this week
no commentswrite comment
1 2 3 4 5
3 more votes to show rating
add to favorites
launch autoscroll
font size
0
reset
guitar tuner
Autoscroll
slow
fast
+/-
esc
set tempo
stop
Help us to improve Ultimate-Guitar.com Take our survey!
×
G------------------------------------------------
D------------------------------------------------
A------------------------------------------------
E-1(x10)--3(x10)-------------------------?-------] Esto se repite 5 veces


Coro
G------------------------------------------------
D------------------------------------------------
A--------3(x10)--------000-222-333-555------------
E-1(x10)--------0(x10)----------------------------


Se repite lo del inicio
G------------------------------------------------
D------------------------------------------------
A------------------------------------------------
E-1(x10)--3(x10)-------------------------?------] Esto se repite 5 veces


Despues se repite 6 veces el coro
Coro
G-------------------------------------------
D-------------------------------------------
A--------3(x10)--------000-222-333-555------
E-1(x10)--------0(x10)----------------------


Luego viene la parte del solo y todo se la lleva igual hasta el final
G------------------------------------------------
D------------------------------------------------
A------------------------------------------------
E-1(x10)-3(x10)/-5(x3)--7(x2)--------------------

Bueno este es mi primer aporte espero y les guste !
Suggest correction
Give kudos to tab author, rate the tab!
1 2 3 4 5
comments
print report bad tab
guest
You may want to rate the tab now too:
select rating
Wanna post a correction for this tab? Suggest correction