Oops, an error
Loading. Please wait.

Declaración De Intransigencia Bass

31 views 1 this week
no commentswrite comment
1 2 3 4 5
3 more votes to show rating
add to favorites
launch autoscroll
font size
0
reset
guitar tuner
×
Best way to learn
"Declaración De Intransigencia"
Autoscroll
slow
fast
+/-
esc
set tempo
stop
-Declaración De Intrancigencia (Version 2006)

*Hugo Basaez jara (hugo_dx@
*Cuatro veces la guitarra,
luego el intro de london calling (es la tab original).

Intro (Riff 1):

G---------------------------------------|
D---------------------------------------|
A-7-5---5-7----1-3-1---5-3-5----5-5/7-7-|
E-----7-------3------3--------3---------|

Rítmica vocal (Riff 2):

G---------------------------------------|
D---9--9------5--5-----7---7---7---7----|
A-7---7-----3--3-----5---5---5---5------|
E---------------------------------------|

Riff intermedio (Riff 3):

G-----------------------------------------------------|
D-----------------------------------------------------|
A-------------12--10--9--7-------------12--14-15-17---|
E-----7---8--------------------7---8------------------|
Suggest correction
Give kudos to tab author, rate the tab!
1 2 3 4 5
comments
print report bad tab
guest
You may want to rate the tab now too:
select rating
Wanna post a correction for this tab? Suggest correction