Oops, an error
Loading. Please wait.

Declaración De Intransigencia Tab

version 3
version 3

Whole song

17 views 1 this week
no commentswrite comment
1 2 3 4 5
3 more votes to show rating
add to favorites
launch autoscroll
font size
0
reset
how to read this tab
guitar tuner
Autoscroll
slow
fast
+/-
esc
set tempo
stop
Help us to improve Ultimate-Guitar.com Take our survey!
×
INTRO
E--------------------------
B--------------------------
G--9--9--9--9/8--8--8--8---
D--9--9--9--9/9--9--9--9---   Bis X4
A--7--7--7--7/7--7--7--7---
E--------------------------

E                C
Vamos a declarar nuestra oposición
D
a este sistema de corrupción
E                 C            D
No participaremos en falsas democrasias con tanta hipocresía
E                  C
¡ Donde Están los asesinos de ayer
D
protegidos por la amnistía?
E                   C
¡ Donde Están las promesas de justicia
D
que ustedes nos hicieron un día?
E-------------------------------------------------
B-------------10--8--7--------------10--12--13--15
G--4-----5-------------7--4----5------------------
D--4-----5----------------4----5------------------
A--2-----3----------------2----3------------------
E-------------------------------------------------

E
No participaremos
C
en este circo
D
no somos sus payasos
E
no somos marionetas
C
como fuimos ayer
D
No somos parte de este fraude
E                C
No representamos esta vil comedia
D
paseada por el mundo
E             C
Si el mapuche mendiga en sus tierras
D
y el obrero sigue comiendo mierda

(riff 2)
E-------------------------------------------------
B-------------10--8--7--------------10--12--13--15
G--4-----5-------------7--4----5------------------.
D--4-----5----------------4----5------------------.
A--2-----3----------------2----3------------------
E-------------------------------------------------
  E          C            D

Solo:

E--12----12--12----12--12----12--12----12-|
B--15]17-17--15]17-17--15]17-17--15]17-17-|
G-----------------------------------------|
D-----------------------------------------|   BisX2
A-----------------------------------------|
E-----------------------------------------|

E-----------------------------------------------------|
B--17-15-12-12--17-15-12-12--17-15-12-12--17-15-12-12-|
G-----------------------------------------------------|
D-----------------------------------------------------|   BisX2
A-----------------------------------------------------|
E-----------------------------------------------------|


riff 2

E
Vamos a declarar
C                   D
nuestra resistencia a nuevas dictaduras
E
a sus falsas promesas
C
a idealismos falsos
D
a sus canciones de quena y charango
E
vamos a declarar
C
nuestra independencia
D
a toda esta basura
E                      C
y aunque en las calles nos sigan reprimiendo
D
la resistencia seguirá viviendo.
E   C   D  x3
Ex799
Cx355
Dx577
Suggest correction
Give kudos to tab author, rate the tab!
1 2 3 4 5
comments
print report bad tab
guest
You may want to rate the tab now too:
select rating
Wanna post a correction for this tab? Suggest correction